Oops, an error
Loading. Please wait.

Dusche tab

version 2
version 2

Whole song

Interactive

187 views 1 this week
no commentswrite comment
1 2 3 4 5
2 more votes to show rating
add to favorites
×
Save as Personal and add changes to this tab that will be seen only by you. Learn more ›
×
You can save this tab as Personal to edit and correct it or add notes. All changes will be seen only by you. Learn more »
launch autoscroll
font size
0
reset
how to read this tab
guitar tuner
edit
Autoscroll
slow
fast
+/-
esc
set tempo
stop
Author
Difficulty
Dusche
======
(M/T: Urlaub)

Due to suggestion of user CommanderBrave I changed the pitch by one half-tone.
Note that the chords become a lot more complex than before. So feel free to use
the original chords if you find these too difficult.
Be sure to play the barre version of E (x79997) and D# (x68886) before the refrain

Intro
   G#m   E     G#m   E     G#m                       E
1:--------------------------------------------------------------------|
2:------------------------------3-3-3-3-3-3-4-4-4-4-------4-4-4-4-4-4-|
3:--------------------------------------------------------------------|
4:-6-6---2-2---6-6---2-2---6-6-----------------------2-2--------------|
5:-6-6---2-2---6-6---2-2---6-6-----------------------2-2--------------|
6:-4-4---0-0---4-4---0-0---4-4-----------------------0-0--------------|
            G#m                       E
1:----------------------------------------------------------------|
2:-5-5-5-5-------3-3-3-3-3-3-4-4-4-4------4-4-4-4-4-4-4-4-5-5-5-5-|
3:----------------------------------------------------------------|
4:----------6-6-----------------------2-2-------------------------|
5:----------6-6-----------------------2-2-------------------------|
6:----------4-4-----------------------0-0-------------------------|
   G#m                          E                            G#m
1:---------------------------------------------------------------|
2:---------------------------------------------------------------|
3:---------------------4-----------------------------------------|
4:-6-6-6-6-6-6-6-6-6-6---6-6-4--2-2-6-6-6-6-6-6-6-6-6-6-6-4--6-6-|
5:-6-6--------------------------2-2--------------------------6-6-|
6:-4-4--------------------------0-0--------------------------4-4-|
                            E                               G#m
1:------------------------------------------------------------|
2:------------------------------------------------------------|
3:-----------------4------------------------------------4---4-|
4:-6-6-6-6-6-6-6-6---6-6-4--2-2-6-6-6-6-6-6-6-6-6-6-6-6---6---|
5:--------------------------2-2-------------------------------|
6:--------------------------0-0-------------------------------|
1. Verse
G#m                       E
  Komm mir nicht zu nahe,   sieh mich nicht so an.
G#m                       E
  Bleib im Hellen sitzen,   da wo ich dich sehen kann.
G#m                             E
  Es begann mit meinem Fahrrad,   diesem elend falschen Stück.
G#m                      E
  Ich trat in die Pedale und mein Fahrrad trat zurück.

G#m                                    E
  Als ich dann in die Wohnung kam, hab ich noch nichts geahnt,
         G#m
Doch die Fußmatten und die Schallplatten
        E                               D#
Und die Krawatten hatten ein Attentat geplant.


Refrain
        G#m                             B
Und ich schlafe in der Dusche, weil die Dusche zu mir hält.
            E                            F#
Sie ist der einzige Freund, der ich noch habe auf der Welt.
        G#m                             B
Ja, ich schlafe in der Dusche, denn die Dusche ist normal.
      C#m                         D#                   Riff 1
Diese Rebellion der Haushaltsgegenstände ist ziemlich brutal.


Riff 1
   G#m                       E
1:----------------------------------------------------|
2:------3-3-3-3-3-3-4-4-4-4-------4-4-4-4-4-4-5-5-5-5-|
3:----------------------------------------------------|
4:-6-6-----------------------2-2----------------------|
5:-6-6-----------------------2-2----------------------|
6:-4-4-----------------------0-0----------------------|
   G#m                       E
1:-------------------------------------------------------|
2:------3-3-3-3-3-3-4-4-4-4------4-4-4-4-4-4-4-4-5-5-5-5-|
3:-------------------------------------------------------|
4:-6-6-----------------------2-2-------------------------|
5:-6-6-----------------------2-2-------------------------|
6:-4-4-----------------------0-0-------------------------|


2. Verse
     G#m                   E
Wenn Tassen in Massen sich einfach fallen lassen,
     G#m                     E
wenn Scheren sich wehren und dir den Krieg erklären.
                   G#m                                E
(Mein, mein,) mein Kühlschrank hasst mich sowieso, er ist paranoid.
              G#m
Doch als mein Bettbezug mich beißen wollte,
E                           D#
Wusste ich: Ich brauche Dynamit!


Refrain
        G#m                             B
Und ich schlafe in der Dusche, weil die Dusche zu mir hält.
            E                            F#
Sie ist der einzige Freund, den ich noch habe auf der Welt.
        G#m                             B
Ja, ich schlafe in der Dusche, denn die Dusche ist normal.
      C#m                         D#
Diese Rebellion der Haushaltsgegenstände ist fatal.

        G#m                                   B
Und ich weiß, sie wollen mich kriegen und sie sind hinter mir her,
     E                            F#
Aber ich bin vorbereitet, ja, ich mach es ihnen schwer.
         G#m                              B
Man muss immer auf der Hut sein, man weiß nie, was so passiert,
         C#m                           D#
Wenn ein durchgedrehter Haushalt gegen einen revoltiert.

        G#m                              B
Gestern Morgen flog der Toaster mir ganz plötzlich um die Ohren.
          E                            F#
Ich weiß: Die verdammte Küche hat sich gegen mich verschworen.
         G#m                     B
Doch ich werde sie besiegen, ich habe einen Plan
            C#m                      D#
Und wenn es sein muss, zünde ich die ganze Bude an.

           G#m          B               E
Sie sollen brennen! Sie sollen brennen!   In der Hölle!
F#                       G#m    B        C#m D#
Stirb! Stirb, Fernseher, stirb!   Stirb!


Outro
G#m B E F#  G#m B C#m D#
G#m B E F#  G#m B C#m D#
Suggest correction
Creating personal tab
Creating personal tab
You can edit any tab online and save it as your Personal.

You can edit, replace or remove any tab part or add personal notes – all changes will be seen only by you.

Personal tabs can be accessed anytime from any device, even offline.
Learn more »
Give kudos to tab author, rate the tab!
1 2 3 4 5
comments
print report bad tab
guest
You may want to rate the tab now too:
select rating
Wanna post a correction for this tab? Suggest correction