Oops, an error
Loading. Please wait.

Times Like These Tab

229 views 1 this week
no commentswrite comment
1 2 3 4 5
please rate
add to favorites
launch autoscroll
font size
0
reset
how to read this tab
guitar tuner
Tab Pro tools
  • play this tab
  • loop segment
  • change instrument
  • show fretboard
  • metronome
Autoscroll
slow
fast
+/-
esc
set tempo
stop
Contributor
Difficulty
intermediate
---------------------------------------------------------------------------
                             TIMES LIKE THESE - Farryl Purkiss 
---------------------------------------------------------------------------
Tabbed by:  Bhaviq18
E-mail: bsubban@gmail.com

http://www.farrylpurkiss.co.za/

This is my first tab, learnt it by ear. Really great combination of strumming and 
quick alternate picking for acoustic. Amazing song to play.

Tuning: E Standard

Capo = 3 

Guitar 1 (You can use your fingers here, it is quite tricky)

Intro                                             \
                                                   |
e|-------0-------------------------------------|   |
B|---------1-------1-----------3-----------3p1-|   |
G|----(2)--------2---2-------0---0-------0-----|   |
D|---2---------2-------2---2-------2---2-------|   |
A|-0---------0-----------3-----------2---------|   |
E|---------------------------------------------|   |
                                                  = x2
e|--------0---------------------------------5\3-|  |
B|----------1-------1-----------0-----------5\3-|  |
G|----(2)---------2---2-------0---0-------0-----|  |
D|---2----------2-------2---2-------2---2-------|  |
A|-0----------0-----------3-----------2---------|  |
E|----------------------------------------------|  |
                                                  /
e|-------0-------------------------------1p0----|
B|---------1-------1---------1p0----------------|
G|----(2)--------0---0-----0-----0--------------|
D|---2---------2---------0-------------3--------|
A|-0---------------------------------3----------|
E|-----------3---------2-----------1------------|

e|-------0-----------------0--------------------|
B|---------1-------1-------1--------------------|
G|----(2)--------0---0-----0--------------------|
D|---2---------2-----------2--------------------|
A|-0-----------------------2--------------------|
E|-----------3-----------2-0--------------------|

Verse 
     D   D U D     D   D U D     D   D U D     D   D U D
e|---0---0-0-0-----0---0-0-0-------------------0---0-0-0-------3---|
B|---1---1-1-1-----1---1-1-1-----3---3-3-3-----3---3-3-3---3/5---3-|
G|---2---2-2-2-----2---2-2-2-----0---0-0-0-----0---0-0-0-----------|
D|---2---2-2-2-----2---2-2-2-----2---2-2-2-----2---2-2-2-----------|
A|-0-0---0-0-0---0-0---0-0-0---3-3---3-3-3---2-2---2-2-2-----------|
E|---------------------------------------------0---0-0-0-----------|

After Chorus 

e|-0---0---0-------0-----------------0----------|
B|-1---1---1-------0-----------------0----------|
G|-2---2---0-------0-(Strum a bit)---0-(Strum)--|
D|-2---2---2-------2-----------------2----------|
A|-0---0---3-----0-2-----------------2----------|
E|-------------3---0---------------3-3----------|


Guitar 2 

Riff 1 (Played during intro and outro) 

e|----------------------------------------|
B|------1---0-----------------------------|
G|-----------(2)--0-------0-------0-2/4-2-|
D|---2----2-----2-------2---2-0h2---------|
A|-0--------------------------------------|
E|-------------------0(3)-----------------|

e|----------------------------------------|
B|-----1---0------------------------------|
G|----------(2)--0------0-------0---------|
D|---2---2-----2------2---2-0h2---0h2-0h2-|
A|-0--------------------------------------|
E|------------------0---------------------|

Riff 2 
e|--------------------------------------|
B|--------------------------------------|
G|-2------------------2-----------------|
D|---2------------------2---------------|
A|-----3-0-0-2-2h3-0------3-0-0-2-3/5-3-|
E|--------------------------------------|

e|--------------------------------------|
B|--------------------------------------|
G|-2------------------2-----------------|
D|---2------------------2---------------|
A|-----3-0-0-2-2h3-0------3-0-0-2-3/5---|
E|--------------------------------------|

Interlude 

e|-0------0-----------------------------|
B|---1----1-----------------------------|
G|-----2—-2------0-2/4-2-2-2------------|
D|------------0h2-----------------------|
A|--------------------------------------|
E|--------------------------------------|

e|-0------0---3-------------------------|
B|---1----1---3-(Strum and mute quickly)|
G|-----2—-2---2-------------------------|
D|--------------------------------------|
A|--------------------------------------|
E|--------------------------------------|

e|-0------0-----------------------------|
B|---1----1-----------------------------|
G|-----2—-2------0----0----0----0---0---|
D|------------0h2—-0h2—-0h2—-0h2—0h2----|
A|--------------------------------------|
E|--------------------------------------|

e|-0------0---3-------------------------|
B|---1----1---3-(Strum)-----------------|
G|-----2—-2---2-------------------------|
D|--------------------------------------|
A|--------------------------------------|
E|--------------------------------------|

Solo

e|---------3-1-0-----------3-1-0-----------3-1-0-------------------|
B|-0-1-0-1-------1-0-1-0-1-------1-0-1-0-1-------1-0-1-0-1-3-1-0-0-|
G|-----------------------------------------------------------------|
D|-----------------------------------------------------------------|
A|-----------------------------------------------------------------|
E|-----------------------------------------------------------------|

e|---------3-1-0-----------3-1-0-----------3-1-0-------------------|
B|-0-1-0-1-------1-0-1-0-1-------1-0-1-0-1-------1-0-1-0-1-3-3-3-3-|
G|-----------------------------------------------------------------|
D|-----------------------------------------------------------------|
A|-----------------------------------------------------------------|
E|-----------------------------------------------------------------|

e|---------3-1-0-----------3-1-0-----------3-1-0-------------------|
B|-0-1-0-1-------1-0-1-0-1-------1-0-1-0-1-------1-0-1-0-1-3-1-0-0-|
G|-----------------------------------------------------------------|
D|-----------------------------------------------------------------|
A|-----------------------------------------------------------------|
E|-----------------------------------------------------------------|

e|---------3-1-0---------------------------------------------------|
B|-0-1-0-1-------1-0-1-0-1-0-1-0-1-1/3-3---------------------------|
G|-----------------------------------------------------------------|
D|-----------------------------------------------------------------|
A|-----------------------------------------------------------------|
E|-----------------------------------------------------------------|

Outro

e|-0-----------------------------------------------|
B|---1---------------------------------------------|
G|-----2-------------------------------------------|
D|-------2---2/7-----------------------------------|
A|---------0---------------------------------------|
E|-------------------------------------------------|

Hope you enjoyed my tab. More coming soon.

************************************

| /   slide up
| \   slide down
| h   hammer-on
| p   pull-off
| ~   vibrato
| +   harmonic
| x   Mute note
| b   Bend
| pb  Pre-bend
| br  Bend release
| pbr Pre-bend release
| brb Bend release bend

************************************
comments
We did not receive enough feedback on this tab! Please rate:
print report bad tab
1 2 3 4 5
I want to post or [tab]
guest
You may want to rate the tab now too:
select rating
Please do not post tabs as comments. Select "correction" instead!