Oops, an error
Loading. Please wait.

All Under Heaven tab

version 1
version 1

Whole song

1,914 views 6 this week
7 commentsread comments
1 2 3 4 5
1 last vote to show rating
add to favorites
×
Save as Personal and add changes to this tab that will be seen only by you. Learn more ›
×
You can save this tab as Personal to edit and correct it or add notes. All changes will be seen only by you. Learn more »
launch autoscroll
font size
0
reset
how to read this tab
guitar tuner
edit
Autoscroll
slow
fast
+/-
esc
set tempo
stop
Author
Difficulty
e----------------------13-13--12-12-------12 12 let it ring-----------------|
b---------------------------------------------------------------------------|
g---------------------------------------------------------------------------|
d-----10/11--10-----------------------10/11--10-----------------------------|
a-----8/9---8--------------------------8/9--8-------------------------------|
e---------------------------------------------------------------------------|
listen to the music
played also in chorus jus add sliding to Db nd to Eb
e---3-----3------1------3--------------|
b---3-----3------1------3--------------|
g---x--5--3------x---3--3--------------|
d---x--5--x--5---x---3--x--5-----------|
a---3-----x--5---1------x--5-----------|
e---x-----3------x------3--------------|

e------13-13-13-12-12-12-12-13-13-13-13-10-10-10-11-11-14-14-16-16-13-13-13-|
b---------------------------------------------------------------------------|
g---------------------------------------------------------------------------|
d---------------------------------------------------------------------------|
a---------------------------------------------------------------------------|
e---------------------------------------------------------------------------|


e -13-12-1212121212-1313131313-1414-1616-1212-1313----|
b-----------------------------------------------------|
g-----------------------------------------------------|
d----10-----------------------------------------------|
a----8------------------------------------------------|
e-----------------------------------------------------|

shouting part...
e----------------------------------------------|
b----------------------------------------------|
g----------------------------------------------|
d-000--777--000--555--000--333--000--222-------|
a-000--777--000--555--000--333--000--222 ------|
e-000--555--000--333--000--111--000------------|


www.myspace.com/faspitch
Suggest correction
Creating personal tab
Creating personal tab
You can edit any tab online and save it as your Personal.

You can edit, replace or remove any tab part or add personal notes – all changes will be seen only by you.

Personal tabs can be accessed anytime from any device, even offline.
Learn more »
Give kudos to tab author, rate the tab!
1 2 3 4 5
comments
print report bad tab
7 comments total. Showing first comments.
0 reply
chuckh0le 10 Jun 11, 2007 06:21 AM

dude, this tab is horrible. if you want i can give you my version to compare with yours

0 reply
khagz_23 31 Jun 11, 2007 08:45 AM

sory... na dis.arranged ko ung tabs hehehe tinatamad kac ako eh at wala naman akong own guitar,, d ko kc na sabay ang pagkinig ng song with guitar.. xenxa nah talaga!! but kau nlng bhala bsta makukuha rin nin.u yan!!! listen to the music how it plays!!!

0 reply
wanderlei 10 Jun 15, 2007 07:37 AM

grabe, walang tumama sa tab. I'm not bashing or anything, it's just, it doesn't sound like the song, even the tuning is wrong.

guest
You may want to rate the tab now too:
select rating
Wanna post a correction for this tab? Suggest correction