Oops, an error
Loading. Please wait.

All Under Heaven tab

version 3
version 3

Whole song

1,542 views 1 this week
no commentswrite comment
1 2 3 4 5
2 more votes to show rating
add to favorites
×
Save as Personal and add changes to this tab that will be seen only by you. Learn more ›
×
You can save this tab as Personal to edit and correct it or add notes. All changes will be seen only by you. Learn more »
launch autoscroll
font size
0
reset
how to read this tab
guitar tuner
edit
Autoscroll
slow
fast
+/-
esc
set tempo
stop
Author
Tabbers playing skills
advanced +
PLS LIKE OUR BAND FAN PAGE @ FACEBOOK -Arista(lucena) http://www.facebook.com/
pages/Arista-Lucena/226729694026830

Faspitch - All Under Heaven Tab

Tuning - Drop C ( d A F C G C )

~-let ring/delay
d~-with delay
*-palm mute
h-hammeron
/-slide

Intro-
Gtr
|--------------------------------------------------------------------|
|--------------------------------------------------------------------|
|--------------------------------------------------------------------|
|-8~-------7~---------------8~----------------7~---------------------|
|-6~-------5~---------------6~----------------5~---------------------|
|--------------------------------------------------------------------|
|
|--------------------------------------------------------------------|
|----------------10d~----------------11d~----------------------------|
|---------------------10d~--8d~-------15d~---------------------------|
|-----10~------------------------------------------------------------|
|-----8~-------------------------------------------------------------|
|--------------------------------------------------------------------|

2.
GtrI
|--------------------------------------------------------------------|
|--------------------------------------------------------------------|
|--------------------------------------------------------------------|2x
|-5-5-5-5-5-5-5-5-1-1-1-1-1-1-1-1-8-8-8-8-8-8-8-8-1-1-1-1-1-1-1-1----|
|-5-5-5-5-5-5-5-5-1-1-1-1-1-1-1-1-8-8-8-8-8-8-8-8-1-1-1-1-1-1-1-1----|
|-5-5-5-5-5-5-5-5-1-1-1-1-1-1-1-1-8-8-8-8-8-8-8-8-1-1-1-1-1-1-1-1----|
GtrII
|--------------------------------------------------------------------------|
|--------------------------------------------------------------------------|
|-7-7-7-7-7-7-7-7-8888-8/101010-121212-10101010-1212-101012121212-10101010-|
|-5-5-5-5-5-5-5-5----------------------------------------------------------|
|-5-5-5-5-5-5-5-5-6666-6/8-8-8--101010-8-8-8-8--1010-8-8-10101010-8-8-8-8--|
|-5-5-5-5-5-5-5-5----------------------------------------------------------|

|--------------------------------------------------------------------------|
|--------------------------------------------------------------------------|
|-7-7-7-7-7-7-7-7-8888-8/101010-121212-10101010-1212-101012121212-14141414-|
|-5-5-5-5-5-5-5-5----------------------------------------------------------|
|-5-5-5-5-5-5-5-5-6666-6/8-8-8--101010-8-8-8-8--1010-8-8-10101010-12121212-|
|-5-5-5-5-5-5-5-5----------------------------------------------------------|
3.
|--------------------------------------------------------------------|
|--------------------------------------------------------------------|
|--------------------------------------------------------------------|
|-1~-----------------------5~----------------------------------------|
|-1~-----------------------5~----------------------------------------|
|-1~-----------------------5~----------------------------------------|
|
|--------------------------------------------------------------------|
|--------------------------------------------------------------------|
|------10--------------------------------14~-------------------------|
|--------------------------------------------------------------------|
|------8---------------------------------12~-------------------------|
|--------------------------------------------------------------------|

Preverse-
|--------------------------------------------------------------------|
|--------------------------------------------------------------------|
|--------------------------------------------------------------------|
|-8~----------------------------8~-------------------------------8~--|
|-6~----------------------------6~-------------------------------6~--|
|--------------------------------------------------------------------|
|
|--------------------------------------------------------------------|
|-----11d~--11d~-------10d~-10d~------11d~--11d~----10d~-------------|
|--------------------------------------------------------10d~---8~---|
|--------------------------------------------------------------------|
|--------------------------------------------------------------------|
|--------------------------------------------------------------------|
      *               *                *

Verse-(0:54)
GtrI-strum eb note @ 0:59  1:05 1:11
|--------------------------------------------------------------------|
|--------------------------------------------------------------------|
|--------------------------------------------------------------------|
|----------------------------8~--------------------------------------|
|----------------------------6~--------------------------------------|
|--------------------------------------------------------------------|

GtrII(0:54)
|--------------------------------------------------------------------|
|--11d~--13d~-----10d~--11d~-------------11d~--11d~---10d~-10d~-/8d~-|
|-----------------------------8d~------------------------------------|
|--------------------------------------------------------------------|
|--------------------------------------------------------------------|
|--------------------------------------------------------------------|
  *                                                   * 
1:06
|----------------8d~-8d~-6d~------10d~-11d~--------------------------|
|--8d~-8d~-6d~----------------------------------11d~-13d~------------|
|--------------------------------------------------------------------|
|--------------------------------------------------------------------|
|--------------------------------------------------------------------|
|--------------------------------------------------------------------|
 *               *               

Interlude
|--------------------------------------5-----------------------------|
|----------------------------------------6---------------------------|
|------------------------------------------7/8-7h8-------------------|
|-1~-----------------------5~----------------------------------------|
|-1~-----------------------5~----------------------------------------|
|-1~-----------------------5~----------------------------------------|

|--------------------------------------------------------------------|
|-13d~---------------------15~-----------------------10h11~----------|
|--------------------------------------------------------------------|
|--------------------------------------------------------------------|
|--------------------------------------------------------------------|
|--------------------------------------------------------------------|

Verse-(1:26)
Gtr1 strum Eb note @ 1:28 1:34 1:40
|--------------------------------------------------------------------|
|--------------------------------------------------------------------|
|--------------------------------------------------------------------|
|--------------8~----------------------------------------------------|
|--------------6~----------------------------------------------------|
|--------------------------------------------------------------------|

|--------------------------------------------------------------------|
|--10d~--11~---------------11d--------10d~-------10d~----------------|
|--------------8d~----------14d--------------------12d~--------------|
|--------------------------------------------------------------------|
|--------------------------------------------------------------------|
|--------------------------------------------------------------------|

1:35
|--10d~--11d~--------------------------------------------------------|
|---------------11d~--13d~-----11~-----------------------------------|
|-------------------------------15~----------------------------------|
|--------------------------------------------------------------------|
|--------------------------------------------------------------------|
|--------------------------------------------------------------------|

Pre-chorus-
GtrI
|--------------------------------------------------------------------|
|--------------------------------------------------------------------|
|--------------------------------------------------------------------|
|---------1----------1----------1----------1----------1----------1---|
|-0-3-5-0-1--0-3-5-0-1--0-3-5-0-1--0-3-5-0-1--0-3-5-0-1--0-3-5-0-1---|
|-0-3-5-0-1--0-3-5-0-1--0-3-5-0-1--0-3-5-0-1--0-3-5-0-1--0-3-5-0-1---|
  * * * *    * * * *    * * * *    * * * *    * * * *    * * * *
|-------------------------------------|
|-------------------------------------|
|-------------------------------------|
|---------1----------1----------------|
|-0-3-5-0-1--0-3-5-0-1--0-3-5-0-3-5---|
|-0-3-5-0-1--0-3-5-0-1--0-3-5-0-3-5---|
    * * * *  * * * *    * * * * * *

GtrII
|--------------------------------------------------------------------|
|--------------------------------------------------------------------|
|---------8----------8----------8----------8----------8----------8---|
|---------x----------x----------x----------x----------x----------x---|
|-0-3-5-0-6--0-3-5-0-6--0-3-5-0-6--0-3-5-0-6--0-3-5-0-6--0-3-5-0-6---|
|-0-3-5-0----0-3-5-0----0-3-5-0----0-3-5-0----0-3-5-0----0-3-5-0-----|
  * * * *    * * * *    * * * *    * * * *    * * * *    * * * *
|-------------------------------------|
|-------------------------------------|
|---------8----------8----------------|
|---------x----------x----------------|
|-0-3-5-0-6--0-3-5-0-6--0-3-5-0-3-5---|
|-0-3-5-0----0-3-5-0----0-3-5-0-3-5---|
  * * * *    * * * *    * * * * * *

Chorus-

GtrI
|--------------------------------------------------------------------|
|--------------------------------------------------------------------|
|--------------------------------------------------------------------|2x
|-5-5-5-5-5-5-5-5-1-1-1-1-1-1-1-1-8-8-8-8-8-8-8-8-1-1-1-1-1-1-1-1----|
|-5-5-5-5-5-5-5-5-1-1-1-1-1-1-1-1-8-8-8-8-8-8-8-8-1-1-1-1-1-1-1-1----|
|-5-5-5-5-5-5-5-5-1-1-1-1-1-1-1-1-8-8-8-8-8-8-8-8-1-1-1-1-1-1-1-1----|
GtrII
|--------------------------------------------------------------------------|
|--------------------------------------------------------------------------|
|-7-7-7-7-7-7-7-7-8888-8/101010-121212-10101010-1212-101012121212-10101010-|
|-5-5-5-5-5-5-5-5----------------------------------------------------------|
|-5-5-5-5-5-5-5-5-6666-6/8-8-8--101010-8-8-8-8--1010-8-8-10101010-8-8-8-8--|
|-5-5-5-5-5-5-5-5----------------------------------------------------------|

|-101010-----------111111--------------------------------101010-----------|
|-------888----(2x)------888----(2x)-111111-888-----(2x)-------888----(2x)|
|----------1010-------------1010----------------1010--------------1010----|
|-------------------------------------------------------------------------|
|-------------------------------------------------------------------------|
|-------------------------------------------------------------------------|

then--scream
|--------------------------------------------------------------------|
|--------------------------------------------------------------------|
|--------------------------------------------------------------------|
|-0-3-5-0-1-3-----0-3-5-0-1-3-----0-3-5-0-1-3------0-3-5-0-1-3-------|2x
|-0-3-5-0-1-3-----0-3-5-0-1-3-----0-3-5-0-1-3------0-3-5-0-1-3-------|
|-0-3-5-0-1-3-----0-3-5-0-1-3-----0-3-5-0-1-3------0-3-5-0-1-3-------|


INterlude-


|--------------------------------------------------------------------|
|--------------------------------------------------------------------|
|--------------------------------------------------------------------|
|-1~-----------------------5~----------------------------------------|
|-1~-----------------------5~----------------------------------------|
|-1~-----------------------5~----------------------------------------|


|-----------1--------------------------------------------------------|
|-------3------------------------------------------------------------|
|---------3----------------------------------------------------------|
|-1~-----------------------5~----------------------------------------|
|-1~-----------------------5~----------------------------------------|
|-1~-----------------------5~----------------------------------------|


Verse-2
GtrI(palm muting)
|--------------------------------------------------------------------|
|--------------------------------------------------------------------|
|--------------------------------------------------------------------|
|-1-1-1-1-1-1-1-1-1-1-1-1-1-1-1-1-5-5-5-5-5-5-5-5-5-5-5-5-5-5-5-5-5--|2x
|-1-1-1-1-1-1-1-1-1-1-1-1-1-1-1-1-5-5-5-5-5-5-5-5-5-5-5-5-5-5-5-5-5--|
|-1-1-1-1-1-1-1-1-1-1-1-1-1-1-1-1-5-5-5-5-5-5-5-5-5-5-5-5-5-5-5-5-5--|
GtrII(efx)
|-------------------------------------|-------------------------------|
|------------------------------10~----|-------------------------------|
|--------10~-------7~--10~--10~---10~-|-8~----8/10~--/12~--/15~--(14)-|
|-7~--8~-----8~-----------------------|-------------------------------|
|-------------------------------------|-------------------------------|
|-------------------------------------|-------------------------------|

2:48GtrI @ II
|--------------------------------------------------------------------|
|--------------------------------------------------------------------|
|--------------------------------------------------------------------|
|-1-1-1-1-1-1-1-1-1-1-1-1-1-1-1-1-5-5-5-5-5-5-5-5-5-5-5-5-5-5-5-5-5--|2x
|-1-1-1-1-1-1-1-1-1-1-1-1-1-1-1-1-5-5-5-5-5-5-5-5-5-5-5-5-5-5-5-5-5--|
|-1-1-1-1-1-1-1-1-1-1-1-1-1-1-1-1-5-5-5-5-5-5-5-5-5-5-5-5-5-5-5-5-5--|


then
3:00                            3:11

|--------------------------------------------------------------------|
|--------------------------------------------------------------------|
|--------------------------------------------------------------------|
|------8~-------------(7)-------------------8~-----------------7~----|
|------6~-------------(5)-------------------6~-----------------5~----|
|--------------------------------------------------------------------|

|--------------------------------------------------------------------|
|--------------------------------------------------------------------|
|--------------------------------------------------------------------|
|------8~-------------7~-------------------8~-----------------7~-----|
|------6~-------------5~-------------------6~-----------------5~-----|
|--------------------------------------------------------------------|

3:04                            
|--------------------------------------------------------------------|
|---------10d~-------------11d~---------10d~--10d~-------------------|
|--------------10d~-8d~-----15d~---------14d~---12d~-----------------|
|--------------------------------------------------------------------|
|--------------------------------------------------------------------|
|--------------------------------------------------------------------|

3:12

|--10d~--11d~--------------------------------------------------------|
|---------------11d~--13d~-----11~-----------------------------------|
|-------------------------------15~----------------------------------|
|--------------------------------------------------------------------|
|--------------------------------------------------------------------|
|--------------------------------------------------------------------|

DO prechorus-
GtrII@3:58
|--------------------------------------------------------------------|
|-1010-----(4x)--1111----(4x)-------------------------1010-----(4x)--|
|------1010----------1010------10h121212-101010-(2x)------1010-------|
|--------------------------------------------------------------------|
|--------------------------------------------------------------------|
|--------------------------------------------------------------------|
4:09
|----10------------8---------------------------10--------------------|
|-------8--(6x)------8--(6x)----10-8-(6x)---------8--(6x)------------|
|-10------------10------------10------------10-----------------------|
|--------------------------------------------------------------------|
|--------------------------------------------------------------------|
|--------------------------------------------------------------------|

then
|--------------------------------------------------------------------|
|--------------------------------------------------------------------|
|--------------------------------------------------------------------|
|-0-3-5-0-1-3-----0-3-5-0-1-3-----0-3-5-0-1-3------0-3-5-0-1-3-------|2x
|-0-3-5-0-1-3-----0-3-5-0-1-3-----0-3-5-0-1-3------0-3-5-0-1-3-------|
|-0-3-5-0-1-3-----0-3-5-0-1-3-----0-3-5-0-1-3------0-3-5-0-1-3-------|

end
|--------------------------------------------------------------------|
|--------------------------------------------------------------------|
|--------------------------------------------------------------------|
|-1~-----------------------------------------------------------------|
|-1~-----------------------------------------------------------------|
|-1~-----------------------------------------------------------------|

            
            
Suggest correction
Creating personal tab
Creating personal tab
You can edit any tab online and save it as your Personal.

You can edit, replace or remove any tab part or add personal notes – all changes will be seen only by you.

Personal tabs can be accessed anytime from any device, even offline.
Learn more »
Give kudos to tab author, rate the tab!
1 2 3 4 5
comments
print report bad tab
guest
You may want to rate the tab now too:
select rating
Wanna post a correction for this tab? Suggest correction