Oops, an error
Loading. Please wait.

Come Reagire Al Presente tab

913 views 18 this week
no commentswrite comment
1 2 3 4 5
2 more votes to show rating
add to favorites
×
Save as Personal and add changes to this tab that will be seen only by you. Learn more ›
×
You can save this tab as Personal to edit and correct it or add notes. All changes will be seen only by you. Learn more »
launch autoscroll
font size
0
reset
how to read this tab
guitar tuner
edit
Autoscroll
slow
fast
+/-
esc
set tempo
stop
Author
[Intro]

guit1&guit2:
D A F#m G5 Bm X2

guit1:
D A F#m G5 Bm X2

guit2:
e|-----------------------------------------------------------------------------|--|
B|-----------------------------------------------------------------------------|--|  x2
G|--11-----11--11--12--14--9-----9--11--9-----9--9--7--------------4--4--4-----|--|
D|--x------x---x---x---x---x-----x--x---x-----x--x--x-----5--5--5--4--4--4-----|--|
A|--9------9---9---10--12--7-----7--9---7-----7--7--5-----5--5--5--2--2--2-----|--|
E|--------------------------------------------------------3--3--3--------------|--|


[Verse]

D5                                  Bm                                   F#m
Con l'autolesionismo, Ci faccio una statua, La penso perfetta, La chiamo tristezza,
                                        G                  Gm                    D
La rivesto di apparenza, Poi la chiamo vita e la chiamo così perché la dedico a voi.
                                Bm
È solo il pensiero che vi rende così forti, così presenti, così costanti,
F#m                             G                            Gm
tanto da scegliere le pene da sopportare per prevalere nella guerra dei rapporti
D5                                            Bm
Ed io, che faccio parte, della schiera dei perdenti, comprendo il ruolo, il mio ruolo
F#m                                           G                   Gm
e lascio scorrere i pensieri come la pioggia, sulla finestra dei vent'anni
D5                                                         Bm
Ma mi porto più lontano, lontano da tutti, spaventato dai consigli di chi ha già visto,
F#m                                               G                 Gm
ha già sentito, ha già provato, ma non è me e non può capire, non può aiutarmi


[Chorus]

guit2:
e|-----------------------------------------------------------------------------|--|
B|-----------------------------------------------------------------------------|--|  x4
G|--11-----11--11--12--14--9-----9--11--9-----9--9--7--------------4--4--4-----|--|
D|--x------x---x---x---x---x-----x--x---x-----x--x--x-----5--5--5--4--4--4-----|--|
A|--9------9---9---10--12--7-----7--9---7-----7--7--5-----5--5--5--2--2--2-----|--|
E|--------------------------------------------------------3--3--3--------------|--|

guit1:
D A F#m         G      Bm
Ricordatevi di noi fra trent'anni
D A F#m         G      Bm
Che avremo bisogno di voi
D A F#m         G      Bm
Sarete l'orgoglio di tanti
D A F#m         G      Bm   A  Bm A
Ma solo un appiglio per noi


[Bridge]

D Bm F#m G (PM)

D
Come
Bm
Reagire
F#m
Davvero
G
Al presente


[Chorus]

guit2:
e|-----------------------------------------------------------------------------|--|
B|-----------------------------------------------------------------------------|--|  x4
G|--11-----11--11--12--14--9-----9--11--9-----9--9--7--------------4--4--4-----|--|
D|--x------x---x---x---x---x-----x--x---x-----x--x--x-----5--5--5--4--4--4-----|--|
A|--9------9---9---10--12--7-----7--9---7-----7--7--5-----5--5--5--2--2--2-----|--|
E|--------------------------------------------------------3--3--3--------------|--|

guit1:
D A F#m         G      Bm
Ricordatevi di noi fra trent'anni
D A F#m         G      Bm
Che avremo bisogno di voi
D A F#m         G      Bm
Sarete l'orgoglio di tanti
D A F#m         G      Bm   A  Bm A
Ma solo un appiglio per noi


[Outro]

Bm        A G
Ora Sei pronto
A
Per dire a tuo padre Che aveva ragione

Bm        A G
Ora Sei pronto
A
Per chiedere scusa Per renderli fieri

Bm        A G
Ora Sei pronto
A
Perché sei diverso Hai voluto troppo

Bm        A G
Ora Sei pronto
A                                Bm
Per piegarti ancora Un'ultima volta



************************************

| x  Dead note

************************************

            
            
Suggest correction
Creating personal tab
Creating personal tab
You can edit any tab online and save it as your Personal.

You can edit, replace or remove any tab part or add personal notes – all changes will be seen only by you.

Personal tabs can be accessed anytime from any device, even offline.
Learn more »
Give kudos to tab author, rate the tab!
1 2 3 4 5
comments
print report bad tab
guest
You may want to rate the tab now too:
select rating
Wanna post a correction for this tab? Suggest correction