Oops, an error
Loading. Please wait.

Out Of My Head Tab

version 1
version 1

Whole song

Interactive

8,235 views 1 this week
4 commentsread comments
1 2 3 4 5
x 7
add to favorites
launch autoscroll
font size
0
reset
how to read this tab
guitar tuner
×
Best way to learn
"Out Of My Head"
Autoscroll
slow
fast
+/-
esc
set tempo
stop
Artist: Fastball
   Album Title: All the Pain Money Can Buy
   Song: Out of My Head
   Tabbed By: David Goad (calgoad@lemoorenet.com)


   Comments: This is a really fun song to play. I know this is the first tab out
   there 
   of the song so have fun with it.

   -----------------------

   ^ = 1/2 step bend
   \ = slide
   5h7p5 = Hammer & pulloff

   -----------------------


   INTRO: E -- G#m -- A -- E -- F#m -- B -- A


   VERSE 1:

   E
   Sometimes I feel

   G#m
   Like I am drunk behind the wheel

   A E 
   The wheel of possibility

   F#m B
   However it may roll



   VERSE 2:

   E
   Give it a spin

   G#m
   See if you can somehow factor in

   A E
   You know theres always more than one way

   F#m B E
   To say exactly what you need to say



   CHORUS:

   E B
   Was I out of my head 

   C#m
   Was I out of my mind

   G#m A 
   How could I have ever been so blind

   E
   I was waiting for an indication 

   A B
   But it was hard to find


   E B
   Dont matter what I say 

   C#m
   Only what I do

   G#m A
   I never meant to do bad things to you

   E 
   So quiet but I finally woke up

   F#m B A
   If youre sad its time you spoke up too



   GUITAR SOLO : Very bendy. Listen to recording for timing.

   e||----------------------------------------------------------------------|
   B||------------------------------5-7^---5-----5--7^--7--5-----5----------|
   G||-------------------------5-7^-----------7---------------7-------------|
   D||------------------5-7^------------------------------------------------|
   A||-------------5h7------------------------------------------------------|
   E||---3\5---5h7----------------------------------------------------------|


   e||-------------------------------------------------------------------|
   B||------------------------------------------------------5--7^--5-----|
   G||---4---6---8---4-4---6---2---4---4--2---4--2---4---6---------------|
   D||-------------------------------------------------------------------|
   A||-------------------------------------------------------------------|
   E||-------------------------------------------------------------------|


   e||---5\7^--7^--9^--7^--9^------7--7\14^---14^--12^--14^--12^---|
   B||-------------------------------------------------------------|
   G||-------------------------------------------------------------|
   D||-------------------------------------------------------------|
   A||-------------------------------------------------------------|
   E||-------------------------------------------------------------|



   CHORUS:

   E B
   Was I out of my head 

   C#m
   Was I out of my mind

   G#m A 
   How could I have ever been so blind

   E
   I was waiting for an indication 

   A B
   But it was hard to find


   E B
   Dont matter what I say 

   C#m
   Only what I do

   G#m A
   I never meant to do bad things to you

   E 
   So quiet but I finally woke up

   F#m B A
   If youre sad its time you spoke up too


   END ON : E







   Tabbed By: David Goad (calgoad@lemoorenet.com) 
Suggest correction
comments
print report bad tab
4 comments total. Showing first comments.
0 reply
CraigIC 0 Sep 18, 2002 08:00 PM

Why is it that when people write out chords they totally ignore the bass notes?

0 reply
St.Clarence 71 Jan 22, 2004 07:00 PM

ur solo part suck like uncle ***er

0 reply
duffmansweenie 54 Jun 20, 2006 04:45 PM

anybody tried this with a capo on the first fret?, doesnt sounds bad

guest
You may want to rate the tab now too:
select rating
Wanna post a correction for this tab? Suggest correction