Oops, an error
Loading. Please wait.

The Way Acoustic tab

version 4
version 4

Whole song

Interactive

238 views 12 this week
no commentswrite comment
1 2 3 4 5
3 more votes to show rating
add to favorites
×
Save as Personal and add changes to this tab that will be seen only by you. Learn more ›
×
You can save this tab as Personal to edit and correct it or add notes. All changes will be seen only by you. Learn more »
launch autoscroll
font size
0
reset
how to read this tab
guitar tuner
backing track
0:00
0:00
edit
Autoscroll
slow
fast
+/-
esc
set tempo
stop
Author
Difficulty
Fastball - The Way

[Verse]

F#m
They made up their minds
                  Bm
And they started packing
       C#                             F#m
They left before the sun came up that day
       F#                   Bm
An exit to eternal summer slacking
F#m                         C#
But where were they going without ever
                F#m
Knowing the way?

F#m
They drank up the wine
                Am
And they got to talking
C#                                    F#m
They now had more important things to say
F#                                    Am
When the car broke down they started walking
F#m                         C#
Where were they going without even
                F#m      E
Knowing the way?


[Chorus]

                     A
Anyone can see the road that they walk on
         E
Is paved with gold
F#m
It's always summer
              C#7
They'll never get cold
              D
They'll never get hungry
          A                E
They'll never get old and grey
                    A                    E
You can see their shadows wandering off somewhere
         F#m
They won't make it home
         C#7
But they really don't care
         D
They wanted the highway
         A              E      C#7
They're happier there today


[Verse 2]

F#m
Their children woke up
                    Bm
And they couldn't find them
        C#                         F#m
They left before the sun came up that day
      F#                                   Bm
They just drove off and left it all behind'em
F#m                        C#
But where were they going without ever

                F#m      E
Knowing the way?


[Chorus 2]

                     A
Anyone can see the road that they walk on
         E
Is paved with gold
F#m
It's always summer
              C#7
They'll never get cold
              D
They'll never get hungry
              A             E
They'll never get old and grey
                   A                    E
You can see their shadows wandering off somewhere
         F#m
They won't make it home
         C#7
But they really don't care
         D
They wanted the highway
         A             E      C#7
They're happier there today


[Solo 1]

e|----------------------------------|-------------------------|-----------------------------------|
B|----------------------------------|-------------------------|-----------------------------------|
G|----------------------------------|-------------------------|-----------------------------11-11-|
D|----------------------------------|------------7--9-/11-----|---11-11-11---9-9-9---7-7-7--------|
A|----------------------------------|------7--9---------------|-----------------------------------|
E|-2--2-2-2----5--5-5-5----7--7-7-7-|---9---------------------|-----------------------------------|

e|--------------------------|------------------------|---------------------|-----------------------|------|
B|--------------------------|-------2--3--/5---5--7--|-9---9-9-10-------9--|-9--7--7---------------|------|
G|-11---9---7---6---4---2---|-4p2--------------------|---------------------|--------9p6-9--6-------|------|
D|--------------------------|-----4------------------|---------------------|------------------9----|-7----|
A|--------------------------|------------------------|---------------------|---------------------9-|------|
E|--------------------------|------------------------|---------------------|-----------------------|------|

Rhythm: F#m  Bm  F#m  C#  F#m



[Chorus 3]

                     A
Anyone can see the road that they walk on
         E
Is paved with gold
F#m
It's always summer
              C#7
They'll never get cold
              D
They'll never get hungry
              A             E
They'll never get old and grey
                   A                    E
You can see their shadows wandering off somewhere
         F#m
They won't make it home
         C#7
But they really don't care
         D
They wanted the highway
              A            E      C#7
They're happier there today



[Solo 2]

e|---------------------------|----------------------------------|----------------------|
B|---------------------------|----------------------------------|----------------------|
G|-4-2---2---2-4-2-----------|----------------------------------|--------------------9-|
D|-----4-----------4-2-------|----------------------------------|----------7--9--11-11-|
A|---------------------4-2p0-|----------------------------------|-----7--9-------------|
E|---------------------------|-2--2-2-2----5--5-5-5----7--7-7-7-|---9------------------|

e|-----------------------|------------------------|---9-------9-----------|
B|-----------------------|------------------------|-----10------10--------|
G|--9---7--7--7---9---9--|--9---7--7-7--7-7--7-7--|--------11------11-11--|
D|-11---9--9--9--11--11--|-11---9--9-9--9-9--9-9--|-----------------------|
A|-----------------------|------------------------|-----------------------|
E|-----------------------|------------------------|-----------------------|

e|--9----9---9---------9---|----5--2-----------------|-------2--2--2/----------|
B|--9----9---9---12----9---|----5--2--5--2-----------|-------2--2--2/----------|
G|-10---10--10---------10--|----------4--2-----------|-------2--2--2/----------|
D|-------------------------|----------------4--2--3--|-4-----4--4--4-----------|
A|-------------------------|-------------------------|-------------------------|
E|-------------------------|-------------------------|-------------------------|


************************************
KEY

| h   Hammer-on
| p   Pull-off
| /   Slide up
| \   Slide down

************************************

            
            
Suggest correction
Creating personal tab
Creating personal tab
You can edit any tab online and save it as your Personal.

You can edit, replace or remove any tab part or add personal notes – all changes will be seen only by you.

Personal tabs can be accessed anytime from any device, even offline.
Learn more »
Give kudos to tab author, rate the tab!
1 2 3 4 5
comments
print report bad tab
guest
You may want to rate the tab now too:
select rating
Wanna post a correction for this tab? Suggest correction