Oops, an error
Loading. Please wait.

Forever tab

1,637 views 1 this week
1 commentread comment
1 2 3 4 5
2 more votes to show rating
add to favorites
×
Save as Personal and add changes to this tab that will be seen only by you. Learn more ›
×
You can save this tab as Personal to edit and correct it or add notes. All changes will be seen only by you. Learn more »
launch autoscroll
font size
0
reset
how to read this tab
guitar tuner
edit
Autoscroll
slow
fast
+/-
esc
set tempo
stop
I figured this out by ear.  Sounds pretty much right to me.
I've got basically the whole thing except the solo I'm still
trying to work out.
Tuning is standard.
Play acoustic or clean electric.
Any questions, comments, cries of outrage, email me at:
Zack.J.Michael@gmail.com
www.myspace.com/gofasterfaster

Verse:
"You're moving on..."
e----2-----0-----3-----2--------------------------|
B------3-----2-----0-----2------------------------|
G--------2-----2-----0-----2----------------------|
D-------------------------------------------------|
A-------------------------------------------------|
E-------------------------------------------------|

Repeat this the whole first verse until:

"Longer than this..."
e----2-----0------3-------------------------------|
B------3-----2----3-------------------------------|
G--------2-----2--0-------------------------------|
D-----------------0-------------------------------|
A-----------------2-------------------------------|
E-----------------3-------------------------------|


[Chorus]
       D         A         G           A
I hope every sad song that you’ll ever sing
     D          A              G        A
Will constantly bring your mind back to me (back to me)
D            A            G          A
Come back to me when this started in spring
  D         A           G
I never saw this ending so
A        D
   Suddenly

[Interlude/Solo]
For this part I usually just play D,A,G,A a couple times
Since I don't have the solo part figured out yet.

[Chorus]
       D         A         G           A
I hope every sad song that you’ll ever sing
     D          A              G        A
Will constantly bring your mind back to me (back to me)
D            A            G          A
Come back to me when this started in spring
  D         A           G*
I never saw this ending so
       D*
Suddenly

* - At these parts it is just a single downward strum

Well, I hope you enjoy!

            
            
Suggest correction
Creating personal tab
Creating personal tab
You can edit any tab online and save it as your Personal.

You can edit, replace or remove any tab part or add personal notes – all changes will be seen only by you.

Personal tabs can be accessed anytime from any device, even offline.
Learn more »
Give kudos to tab author, rate the tab!
1 2 3 4 5
comments
print report bad tab
1 comment total.
0 reply
ZackAttackAtck! 105 Sep 13, 2009 10:14 AM

Verse:
"You're moving on..."
e----2-----0--------------------------------------|
B------3-----2-----3-----2------------------------|
G--------2-----2-----0-----2----------------------|
D----------------------0-----2--------------------|
A-------------------------------------------------|
E-------------------------------------------------|

guest
You may want to rate the tab now too:
select rating
Wanna post a correction for this tab? Suggest correction