Oops, an error
Loading. Please wait.

Bathroom Wall Bass Tab

version 1
version 1

Whole song

  • It's not upside down like Ver 1 and there's a few other changes.

Interactive

3,033 views 3 this week
2 commentsread comments
1 2 3 4 5
x 3
add to favorites
launch autoscroll
font size
0
reset
guitar tuner
Autoscroll
slow
fast
+/-
esc
set tempo
stop
Help us to improve Ultimate-Guitar.com Take our survey!
×
Author
-------------------------------------------------------------------------------
Bathroom Wall - Faster Pussycat
-------------------------------------------------------------------------------

Originally transcribed by James


4-0-1-2-333333--0-1-2-333333--0-1-2-33333--0-1-2-33333-------|
3------------------------------------------------------------|
2------------------------------------------------------------|
1------------------------------------------------------------|

4-------------0-1-2-33333----------------3333333-0-1-2-3333--|
3-1-2-33333----------------5-------3-------------------------|
2---------------------------4-7-4---2-5-2--------------------|
1------------------------------------------------------------|

4-0-1-2-3333-----------0-1-2-3333---------------3333333-----3-|
3------------1-2-33333------------5------3-------------5-3-2--|
2----------------------------------4-7-4--2-5-2---------------|
1-------------------------------------------------------------|

4------3-0-1-2-3333--0-1-2-3333-----------0-1-2-3333---------|
3-5-3-2-------------------------1-2-33333------------5-------|
2-----------------------------------------------------4-7-4--|
1------------------------------------------------------------|

4-------333333-0-1-2-333333-0-1-2-33333------------0-1-2-3333-|
3-3------------------------------------1-2-3-33333------------|
2--2-5-3------------------------------------------------------|
1-------------------------------------------------------------|

4--------------33333------------23-23-23-23--------------23--|
3-5------3----------22222-55555------------222222-555555-----|
2--4-7-4--2-5-2----------------------------------------------|
1------------------------------------------------------------|

4-23-23-23-0-1-2-33333-0-1-2-33333--------------3333333------|
3---------------------------------5------3-------------------|
2----------------------------------4-7-4--2-5-2--------------|
1------------------------------------------------------------|

4-0-1-2-3333-0-1-2-3333---------0-1-2-33333------------333333-|
3----------------------1-2-33333-----------5-----3------------|
2-------------------------------------------4-7-4-2-5-2-------|
1-------------------------------------------------------------|

4---------------23-23-23-23-------------23-23-23-23-0-1-2-33333-|
3-222222-555555------------222222-555555------------------------|
2---------------------------------------------------------------|
1---------------------------------------------------------------|

4-0-1-2-3333--------0-1-2-3333-------------3333333--0-1-2-3333-|
3-----------1-2-3333----------5-----3--------------------------|
2------------------------------4-7-4--2-5-2--------------------|
1--------------------------------------------------------------|

4-0-1-2-3333----------0-1-2-3333------------333333--0-1-2-3333-|
3------------1-2-3333-----------5-----3------------------------|
2--------------------------------4-7-4-2-5-2-------------------|
1--------------------------------------------------------------|

4-0-1-2-3333---------0-1-2-3333------------33333333------------|
3-----------1-2-3333-----------5-----3-------------222222------|
2-------------------------------4-7-4-2-5-2--------------------|
1--------------------------------------------------------------|

4-------23-23-23-23---------------23-23-23-23-0-1-2-3333333-------|
3-555555-----------2222222-5555555--------------------------------|
2-----------------------------------------------------------------|
1-----------------------------------------------------------------|

4-3-3-3-1-2-3 <---|fade out
3-----------------|
2-----------------|    end
1-----------------|
Suggest correction
Give kudos to tab author, rate the tab!
1 2 3 4 5
comments
print report bad tab
2 comments total.
0 reply
PUNKfromNORWAY 113 May 12, 2008 06:33 PM

that's some ****ing wierd mess, dude, good tab though

0 reply
xxxxChrisTxxxx 9,440 Nov 29, 2012 03:57 PM

Not bad, apart from being upside down.

I think the run goes more like...
G|---------------------------------|
D|------4-5-7-5-4-------2-4-5-4-2--|
A|--5-5-----------5-3-3------------|
E|---------------------------------|

guest
You may want to rate the tab now too:
select rating
Wanna post a correction for this tab? Suggest correction