Oops, an error
Loading. Please wait.

Bottle In Front Of Me Bass Tab

111 views 1 this week
no commentswrite comment
1 2 3 4 5
please rate
add to favorites
launch autoscroll
font size
0
reset
guitar tuner
Autoscroll
slow
fast
+/-
esc
set tempo
stop
Help us to improve Ultimate-Guitar.com Take our survey!
×
Author
Difficulty
-------------------------------------------------------------------------------
                                      Bottle In Front Of Me - Faster Pussycat
-------------------------------------------------------------------------------

Tabbed by: ChrisT

From the album: Faster Pussycat

Tuning: Standard

Intro
G|------------------------777-------------------7-7----|
D|-----------------------------------------------------|
A|----------5-----------5---------5-----------5--------|
E|---12\0-7---7-5-3-0-7-------0-7---7-5-3-0-7----------|

Verse 1
G|----------------------777-------------------7-7----|
D|o-------------------------------------------------o|
A|o-------5-----------5---------5-----------5-------o|
E|----0-7---7-5-3-0-7-------0-7---7-5-3-0-7----------|

Chorus
G|-----------------------------------------------------------------------|
D|o-----------------------------------------------------3---------------o|
A|o-------------------3---3-3-3-----------------------5---5-3---3/12\---o|
E|----5---5-5-5-5-5-5-----------0-2-3-5---5-5-5-5-5-5--------------------|

Verse 2
G|----------------------777-------------------7-7----|
D|o-------------------------------------------------o|
A|o-------5-----------5---------5-----------5-------o|
E|----0-7---7-5-3-0-7-------0-7---7-5-3-0-7----------|

Chorus
G|-----------------------------------------------------------------------|
D|o-----------------------------------------------------3---------------o|
A|o-------------------3---3-3-3-----------------------5---5-3---3/12\---o|
E|----5---5-5-5-5-5-5-----------0-2-3-5---5-5-5-5-5-5--------------------|

G|---------------------777-------------------7-7---|
D|-------------------------------------------------|
A|-------5-----------5---------5-----------5-------|
E|---0-7---7-5-3-0-7-------0-7---7-5-3-0-7---------|

G|-----------------------------------------------------------------------|
D|o-------7-7-7-5---------------------5---5---5-------5---5---5---------o|
A|o---------------7-5-3-----------------7---7---5-6-7---7---7---5-6-7---o|
E|----5------------------------------------------------------------------|

Guitar Solo     Repeat x8                 Repeat x4 
G|-----------------------|-------------------------|
D|o---------------------o|o-----------------------o|
A|o---------------------o|o---7---7-7h9p7-5---5---o|
E|----5-3-5-3-5-0-1-2----|------------------5------|

                       Repeat x5
G|------------------------------|-------7---------------------|
D|o----------------------------o|-----9-----------------------|
A|o-------5--------------------o|-----------------------------|
E|----0-7---7-5-3-0-0-0-/12\----|---0-----7-530---0-0-0-/12\--|

Chorus
G|-----------------------------------------------------------------------|
D|o-----------------------------------------------------3---------------o|
A|o-------------------3---3-3-3-----------------------5---5-3---3/12\---o|
E|----5---5-5-5-5-5-5-----------0-2-3-5---5-5-5-5-5-5--------------------|

Outro
G|-----------------------7h9--------------------7h9-------|
D|--------------------------------------------------9p7---|
A|-------5------------------------5-----------------------|
E|---0-7---7-5-3-0-0-0--------0-7---7-5-3-0-0-0-----------|

G|------------------------------------------------|
D|------------------------------------------------|
A|-------5------------------------5---------------|
E|---0-7---7-5-3-0-0-0-/12\---0-7---7-5-3-0-0-0---|


| /  slide up
| \  slide down
| h  hammer-on
| p  pull-off
| ~  vibrato
| +  harmonic
| x  Mute note
===============================================================================

Please rate or comment........
Suggest correction
Give kudos to tab author, rate the tab!
1 2 3 4 5
comments
print report bad tab
guest
You may want to rate the tab now too:
select rating
Please do not post tabs as comments. Select "correction" instead!