Oops, an error
Loading. Please wait.

City Has No Heart Bass Tab

83 views 1 this week
no commentswrite comment
1 2 3 4 5
please rate
add to favorites
launch autoscroll
font size
0
reset
guitar tuner
Tab Pro tools
  • play this tab
  • loop segment
  • change instrument
  • show fretboard
  • metronome
Autoscroll
slow
fast
+/-
esc
set tempo
stop
Contributor
Difficulty
--------------------------------------------------------------------------------
                                             City Has No Heart - Faster Pussycat
--------------------------------------------------------------------------------

Tabbed by: ChrisT

From the album: Faster Pussycat (1987)

Tuning: Standard

Intro
G|-----------------------------------------------------|
D|o---------------------------------------------------o|
A|o-------7-----------------------7-------------------o|
E|----0-0-----0-7---0-5---0---0-0-----0-7---0-5---0----|

G|-----------------------------------------------------|
D|o----------------------------------------7----------o|
A|o-------7----------------------7-----7-9---9-7------o|
E|---0-0-----0-7-9-7-5-7-5---0-0---7-9-----------9-----|

Verse 1
G|----------------------------------------------------------------------|
D|o--------------------------------------------------------------------o|
A|o------------------3-3-3-3-3-3-3-3-------------------------3---3-----o|
E|---3-3-3-3-3-3-3-3-----------------3-3-3-3-3-3-3-3-1---1--------------|

                             Repeat x3
G|------------------------------------|--------------------------------------|
D|o----------------------------------o|--------------------------------------|
A|o--2-2-2-2-2---2---4---2-----------o|---2-2-2-2-2---2/14-14-14-/14-14-14---|
E|---------------------------4---5----|--------------------------------------|

Chorus                                        Repeat x4
G|-----------------------------------------------------|
D|o----------------------------------------7----------o|
A|o-------7----------------------7-----7-9---9-7------o|
E|---0-0-----0-7-9-7-5-7-5---0-0---7-9-----------9-----|

Verse 2
G|----------------------------------------------------------------------|
D|o--------------------------------------------------------------------o|
A|o------------------3-3-3-3-3-3-3-3-------------------------3---3-----o|
E|---3-3-3-3-3-3-3-3-----------------3-3-3-3-3-3-3-3-1---1--------------|

                             Repeat x3
G|------------------------------------|--------------------------------------|
D|o----------------------------------o|--------------------------------------|
A|o--2-2-2-2-2---2---4---2-----------o|---2-2-2-2-2---2/14-14-14-/14-14-14---|
E|---------------------------4---5----|--------------------------------------|

Chorus                                        Repeat x4
G|-----------------------------------------------------|
D|o----------------------------------------7----------o|
A|o-------7----------------------7-----7-9---9-7------o|
E|---0-0-----0-7-9-7-5-7-5---0-0---7-9-----------9-----|

Bridge  Repeat until 2:31             Repeat x3
G|------|----------------|---------------------|------------------------------|
D|------|o--------------o|o-------------------o|------------------------------|
A|------|o----6h7-7-7---o|o--2-2-2-2-2-2-2-2--o|---/14-14-14-14-14-14-14-14---|
E|--0---|----------------|---------------------|------------------------------|

Guitar Solo                                   Repeat x4
G|-----------------------------------------------------|
D|o----------------------------------------7----------o|
A|o-------7----------------------7-----7-9---9-7------o|
E|---0-0-----0-7-9-7-5-7-5---0-0---7-9-----------9-----|

Verse 3
G|----------------------------------------------------------------------|
D|o--------------------------------------------------------------------o|
A|o------------------3-3-3-3-3-3-3-3-------------------------3---3-----o|
E|---3-3-3-3-3-3-3-3-----------------3-3-3-3-3-3-3-3-1---1--------------|

                             Repeat x3
G|------------------------------------|--------------------------------------|
D|o----------------------------------o|--------------------------------------|
A|o--2-2-2-2-2---2---4---2-----------o|---2-2-2-2-2---2/14-14-14-/14-14-14---|
E|---------------------------4---5----|--------------------------------------|

Outro Chorus                           Repeat until end
G|-----------------------------------------------------|
D|o----------------------------------------7----------o|
A|o-------7----------------------7-----7-9---9-7------o|
E|---0-0-----0-7-9-7-5-7-5---0-0---7-9-----------9-----|



| /  slide up
| \  slide down
| h  hammer-on
| p  pull-off
| ~  vibrato
| +  harmonic
| x  Mute note
===============================================================================

Please rate or comment..........
comments
We did not receive enough feedback on this tab! Please rate:
print report bad tab
1 2 3 4 5
I want to post or [tab]
guest
You may want to rate the tab now too:
select rating
Please do not post tabs as comments. Select "correction" instead!