Oops, an error
Loading. Please wait.

Ship Rolls In Bass Tab

214 views 1 this week
no commentswrite comment
1 2 3 4 5
3 more votes to show rating
add to favorites
launch autoscroll
font size
0
reset
guitar tuner
Autoscroll
slow
fast
+/-
esc
set tempo
stop
Help us to improve Ultimate-Guitar.com Take our survey!
×
Author
Difficulty
novice
-------------------------------------------------------------------------------
                                          Ship Rolls In - Faster Pussycat
-------------------------------------------------------------------------------

Tabbed by: ChrisT

From the album: Faster Pussycat (1987)

Tuning: Standard

Intro
G|---------------------------------------------|
D|---------------------------------------------|
A|----------------5-----------7----------------|
E|-----5----------------------------------5----|

G|-----------------------------------------------------|
D|o-------------------4-4-7-4-----6-6-9-6-7-7---------o|
A|o-------4-4-7-4-5-5---------7-7-------------9-7-----o|
E|----5-5-----------------------------------------9----|

Verse 1                                  Repeat x4
G|------------------------------------------------|
D|o-----------------------------4-7-------6-9----o|
A|o-------4-7-------4-7-4---5-5-------7-7--------o|
E|----5-5-------5-5-------------------------------|

Chorus
G|------------------------------------------------------------|
D|o------7---4-----------9---6-------------------------------o|
A|o--5-----------5---7-----------7-------4-5---------4-5-----o|
E|-----------------------------------5-5-----5---5-5-----5----|

G|--------------------------------|
D|-------7---4--------------------|
A|---------------5---7---7---7----|
E|---5----------------------------|

Verse 2                                  Repeat x4
G|------------------------------------------------|
D|o-----------------------------4-7-------6-9----o|
A|o-------4-7-------4-7-4---5-5-------7-7--------o|
E|----5-5-------5-5-------------------------------|

Chorus
G|------------------------------------------------------------|
D|o------7---4-----------9---6-------------------------------o|
A|o--5-----------5---7-----------7-------4-5---------4-5-----o|
E|-----------------------------------5-5-----5---5-5-----5----|

G|--------------------------------|
D|-------7---4--------------------|
A|---5-----------5---7---7---7----|
E|--------------------------------|

Guitar Solo
G|------------------------------------------------|
D|o-----------------------------4-7-------6-9----o|
A|o-------4-7-------4-7-4---5-5-------7-7--------o|
E|----5-5-------5-5-------------------------------|

G|------------------------------------------------------------|
D|o------7---4-----------9---6-------------------------------o|
A|o--5-----------5---7-----------7-------4-5---------4-5-----o|
E|-----------------------------------5-5-----5---5-5-----5----|

G|--------------------------------|
D|-------7---4--------------------|
A|---5-----------5---7---7---7----|
E|--------------------------------|

Verse 3                                  Repeat x4
G|------------------------------------------------|
D|o-----------------------------4-7-------6-9----o|
A|o-------4-7-------4-7-4---5-5-------7-7--------o|
E|----5-5-------5-5-------------------------------|

Chorus                                               Repeat x4
G|------------------------------------------------------------|
D|o------7---4-----------9---6-------------------------------o|
A|o--5-----------5---7-----------7-------4-5---------4-5-----o|
E|-----------------------------------5-5-----5---5-5-----5----|

G|-----------------------------------------------|
D|-------7---4-----------------------------------|
A|---5-----------5---7---7---7---7---7---7-------|
E|-------------------------------------------5---|



| /  slide up
| \  slide down
| h  hammer-on
| p  pull-off
| ~  vibrato
| +  harmonic
| x  Mute note
===============================================================================

Bass in this song is a bit indistinct in some places, think I've got something close.
Please rate or comment.........
Suggest correction
Give kudos to tab author, rate the tab!
1 2 3 4 5
comments
print report bad tab
guest
You may want to rate the tab now too:
select rating
Wanna post a correction for this tab? Suggest correction