Oops, an error
Loading. Please wait.

Shooting You Down Bass Tab

175 views 1 this week
no commentswrite comment
1 2 3 4 5
please rate
add to favorites
launch autoscroll
font size
0
reset
guitar tuner
Autoscroll
slow
fast
+/-
esc
set tempo
stop
Help us to improve Ultimate-Guitar.com Take our survey!
×
Author
Difficulty
------------------------------------------------------------------------------------
                                         Shooting You Down - Faster Pussycat
------------------------------------------------------------------------------------

Tabbed by: ChrisT

From the album: Faster Pussycat (1987)

Tuning: Standard

Intro
G|----------------------------------------------------|
D|----------------------------------------------------|
A|----------------------------------------------------|
E|---0-0-0-0-0-0-0-0-0-0-0-0-5-7-8-7-7-7-7-7-7-7-7----|

G|----------------------------------------------------|
D|----------------------------------------------------|
A|----------------------------------------------------|
E|---5-5-5-5-5-5-5-5-0-0-0-0-0-0-0-0-0-0-0-0-0-0-0----|

Verse 1
G|-----------------------------------------------------|
D|o----------------------------------------------------|
A|o----------------------------------------------------|
E|----0-0-0-0-0-0-0-0-0-0-0-0-5-7-8-7-7-7-7-7-7-7-7----|

G|-----------------------------------------------------|
D|----------------------------------------------------o|
A|----------------------------------------------------o|
E|---5-5-5-5-5-5-5-5-0-0-0-0-0-0-0-0-0-0-0-0-0-0-0-----|

Chorus
G|----------------------------------------------------------------------|
D|---------------------------------------------------2---0--------------|
A|-------------------0-2-2---2---2---------------------------2----------|
E|---3-3-3-3-3-3-3-3-----------------0-0-0-0-0-0-0-0-------------3------|

G|----------------------------------------------------------|
D|----------------------------------------------------------|
A|-------------------2-2-2-2-2-2-2-2/7-7-7-7-7-7-7-7-7-7----|
E|---3-3-3-3-3-3-3-3----------------------------------------|

                                Repeat x4
G|-------------------|-------------------|-----------------------------------------|
D|o-----------------o|o-----------------o|---------------------11-15----11-15------|
A|o-----------------o|o-5-5-5-5-5-5-5-5-o|-----------------/12-------12-------12\--|
E|--5-5-5-5-5-5-5-5--|-------------------|--5-5-5-5-5-5-5-5------------------------|

                                    Repeat x4
G|---------------------|---------------------|-----------------------|
D|o-------------------o|o-------------------o|-----------------------|
A|o-------------------o|o--5-5-5-5-5-5-5-5--o|-----------------------|
E|---5-5-5-5-5-5-5-5---|---------------------|---5-5-5-5-5-5-5-5-5---|

Verse 2
G|-----------------------------------------------------|
D|o----------------------------------------------------|
A|o----------------------------------------------------|
E|----0-0-0-0-0-0-0-0-0-0-0-0-5-7-8-7-7-7-7-7-7-7-7----|

G|-----------------------------------------------------|
D|----------------------------------------------------o|
A|----------------------------------------------------o|
E|---5-5-5-5-5-5-5-5-0-0-0-0-0-0-0-0-0-0-0-0-0-0-0-----|

Chorus
G|----------------------------------------------------------------------|
D|---------------------------------------------------2---0--------------|
A|-------------------0-2-2---2---2---------------------------2----------|
E|---3-3-3-3-3-3-3-3-----------------0-0-0-0-0-0-0-0-------------3------|

G|----------------------------------------------------------|
D|----------------------------------------------------------|
A|-------------------2-2-2-2-2-2-2-2/7-7-7-7-7-7-7-7-7-7----|
E|---3-3-3-3-3-3-3-3----------------------------------------|

                                Repeat x4
G|-------------------|-------------------|-----------------------------------------|
D|o-----------------o|o-----------------o|---------------------11-15----11-15------|
A|o-----------------o|o-5-5-5-5-5-5-5-5-o|-----------------/12-------12-------12\--|
E|--5-5-5-5-5-5-5-5--|-------------------|--5-5-5-5-5-5-5-5------------------------|

                                    Repeat x4
G|---------------------|---------------------|---------------------|
D|o-------------------o|o-------------------o|o-------------------o|
A|o-------------------o|o--5-5-5-5-5-5-5-5--o|o-------------------o|
E|---5-5-5-5-5-5-5-5---|---------------------|---5-5-5-5-5-5-5-5---|

                                                         1st Time Only
G|------------------------------------------------------|------------------|
D|o-----------------------------------------------------|-----------------o|
A|o--3-3-3-3-3-3-3-3-2-2-2-2-2-2-2-2--------------------|-----------------o|
E|-----------------------------------5-5-5-5-5-5-5-5-5--|--5-5-5-5-5-5-5---|

Guitar Solo
G|-----------------------------------------------------|
D|o----------------------------------------------------|
A|o----------------------------------------------------|
E|----0-0-0-0-0-0-0-0-0-0-0-0-5-7-8-7-7-7-7-7-7-7-7----|

G|-----------------------------------------------------|
D|----------------------------------------------------o|
A|----------------------------------------------------o|
E|---5-5-5-5-5-5-5-5-0-0-0-0-0-0-0-0-0-0-0-0-0-0-0-----|

Chorus
G|----------------------------------------------------------------------|
D|---------------------------------------------------2---0--------------|
A|-------------------0-2-2---2---2---------------------------2----------|
E|---3-3-3-3-3-3-3-3-----------------0-0-0-0-0-0-0-0-------------3------|

G|----------------------------------------------------------|
D|----------------------------------------------------------|
A|-------------------2-2-2-2-2-2-2-2/7-7-7-7-7-7-7-7-7-7----|
E|---3-3-3-3-3-3-3-3----------------------------------------|

Outro                           Repeat x4
G|-------------------|-------------------|-----------------------------------------|
D|o-----------------o|o-----------------o|---------------------11-15----11-15------|
A|o-----------------o|o-5-5-5-5-5-5-5-5-o|-----------------/12-------12-------12\--|
E|--5-5-5-5-5-5-5-5--|-------------------|--5-5-5-5-5-5-5-5------------------------|

                                    Repeat x4
G|---------------------|---------------------|----------------------------------|
D|o-------------------o|o-------------------o|----------------------------------|
A|o-------------------o|o--5-5-5-5-5-5-5-5--o|--------------------4-7---4-7-----|
E|---5-5-5-5-5-5-5-5---|---------------------|--5-5-5-5-5-5-5-5-5-----5-----5---|

                                    Repeat x4
G|---------------------|---------------------|---------------------|
D|o-------------------o|o-------------------o|o-------------------o|
A|o-------------------o|o--5-5-5-5-5-5-5-5--o|o-------------------o|
E|---5-5-5-5-5-5-5-5---|---------------------|---5-5-5-5-5-5-5-5---|


| /  slide up
| \  slide down
| h  hammer-on
| p  pull-off
| ~  vibrato
| +  harmonic
| x  Mute note
===============================================================================

Please rate or comment........
Suggest correction
Give kudos to tab author, rate the tab!
1 2 3 4 5
comments
print report bad tab
guest
You may want to rate the tab now too:
select rating
Wanna post a correction for this tab? Suggest correction