Oops, an error
Loading. Please wait.

Flashback bass

6,882 views 18 this week
2 commentsread comments
1 2 3 4 5
1 last vote to show rating
add to favorites
×
Save as Personal and add changes to this tab that will be seen only by you. Learn more ›
×
You can save this tab as Personal to edit and correct it or add notes. All changes will be seen only by you. Learn more »
launch autoscroll
font size
0
reset
guitar tuner
edit
Autoscroll
slow
fast
+/-
esc
set tempo
stop
Author
heyy,   this is my first tab, but im pretty sure its rite :D this is my fravorite band
song  so i thought id tab it,   comment or email me on eimajy@live.co.uk if theres any
to add or corrections or watever.

standar tuning


This song has sum funky timing on it  for some reason the bass is just slightly behind
thing else, which sounds pretty kewl but makes it a pain in the arse to play in time,
can just play in time with every thing else and it works but sounds much better the way 
play it
It sort of builds up to the main bit gradually, listen to the song and ull work it out
enough.

G|----------------------------|
D|--3--3----------------------|
A|----------------------------| X2
E|----------------------------|
Comes in at 0:19


G|----------------------------|
D|--3--3----------------------|
A|----------------------------|  X1
E|--------------------0-------|


G|----------------------------|
D|--3--3----------------------|
A|----------------------------| X1
E|-----------------4----0-----|


G|----------------------------|
D|--3--3----------------------|
A|------(0)-4--4--------------| X1
E|-----------------4----0-----|


Just repeat this for the duration of the song and listen for the rests

            
            
Suggest correction
Creating personal tab
Creating personal tab
You can edit any tab online and save it as your Personal.

You can edit, replace or remove any tab part or add personal notes – all changes will be seen only by you.

Personal tabs can be accessed anytime from any device, even offline.
Learn more »
Give kudos to tab author, rate the tab!
1 2 3 4 5
comments
print report bad tab
2 comments total.
+1 reply
paul-jin 10 Mar 21, 2014 08:50 AM

last note should be F again like this plus there is missing a hit on G#:

G|----------------------------|
D|--3--3----------------------|
A|------(0)-4--4--------------|
E|-----------------4--4-1-----|

0 reply
sampatnelli 10 Jun 12, 2016 04:08 AM

G|----------------------------|
D|--3--3----------------------|
A|------(4)-4--4--------------|
E|-----------------4--4-1-----|

guest
You may want to rate the tab now too:
select rating
Wanna post a correction for this tab? Suggest correction