Oops, an error
Loading. Please wait.

Lean Back Tab

by Fat Joe
3,139 views 3 this week
3 commentsread comments
1 2 3 4 5
x 12
add to favorites
×
Save as Personal and add changes to this tab that will be seen only by you. Learn more ›
×
You can save this tab as Personal to edit and correct it or add notes. All changes will be seen only by you. Learn more »
save as personal
new!
launch autoscroll
font size
0
reset
how to read this tab
guitar tuner
Autoscroll
slow
fast
+/-
esc
set tempo
stop
----------------------------------------------------------------------------
                             Lean Back - Fat Joe
----------------------------------------------------------------------------
Tabbed by:MackDaddyMike24
Email:travestyweb@yahoo.com

Tuning:normal

Intro
e|--------------------------------|
B|--------------------------------|
G|--------------------------------|
D|--------------------------------|
A|6-4-7-4-6----------6-4-7-4-6----|
E|--------------------------------|

Main Part
e|----------------------------------------------|
B|----------------------------------------------|
G|----------------------------------------------|
D|----------------------------------------------|
A|--4-6-7/9\7-6-7/9\7-6----4-6-6h7p6-9-7/9\7-6--|
E|4----------------------4----------------------|

HAVE FUN AND RATE HIGH PLEASE!
Suggest correction
comments
print report bad tab
3 comments total.
0 reply
jdixonfan 10 Jan 31, 2005 07:00 PM

i think its


--4-6-7-6-4-7-6-4-----4-6-7-9-7-7-6-4-------------------------
4-------------------------------------4-----------------------

0 reply
hard rockstar 10 Sep 06, 2006 09:26 AM

no one asked u ^^

0 reply
Blue-toxic 455 Dec 02, 2007 02:25 AM

i like it the way It is Good job MackDaddyMike24 5 stars :D

guest
You may want to rate the tab now too:
select rating
Wanna post a correction for this tab? Suggest correction