Oops, an error
Loading. Please wait.

Dont Let The Man Get You Down Tab

4,704 views 6 this week
no commentswrite comment
1 2 3 4 5
1 last vote to show rating
add to favorites
launch autoscroll
font size
0
reset
how to read this tab
guitar tuner
Autoscroll
slow
fast
+/-
esc
set tempo
stop
Help us to improve Ultimate-Guitar.com Take our survey!
×
Author
Fatboy Slim - Don't Let The Man Get You Down


E|-----------------------------|
B|--7--10--------9--12---------|
G|---------6--9----------9-----|
D|-----------------------------|
A|-----------------------------|
e|-----------------------------|


E|-------------------------------------|
B|------9h10-----------9--9--12--12----|
G|--11--------9------------------------|
D|---------------9/11------------------|
A|-------------------------------------|
e|-------------------------------------|


        D         A                        E           A
And the sign said long haired,freaky people need not apply        x7


E|--------------------------------------------------------------|
B|--7--7--10--10-----------7--7--10--10--10------10------10-----|
G|-------------------------------------------11------11---------|
D|--------------------------------------------------------------|  x2
A|--------------------------------------------------------------|
e|--------------------------------------------------------------|

E|------------|
B|------------|
G|------------|
D|------------|  x8
A|--12h13h14--|
e|------------|

E|-------------------------------------|
B|------9h10-----------9--9--12--12----|
G|--11--------9------------------------|
D|---------------9/11------------------|   x2
A|-------------------------------------|
e|-------------------------------------|


        D         A                        E           A
And the sign said long haired,freaky people need not apply        x2


E|--------------------------------------------------------------|
B|--7--7--10--10-----------7--7--10--10--10------10------10-----|
G|-------------------------------------------11------11---------|
D|--------------------------------------------------------------|   x4
A|--------------------------------------------------------------|
e|--------------------------------------------------------------|


E|-----------------------------------|
B|-----------------------------------|
G|--10--10--9--10--10--10--10--10----|
D|-----------------------------------|
A|-----------------------------------|
e|-----------------------------------|


        D         A                        E           A
And the sign said long haired,freaky people need not apply        x2

E|------------|
B|------------|
G|------------|
D|------------|  x8
A|--12h13h14--|
e|------------|


E|------------|
B|--12h13h14--|
G|------------|
D|------------|  x8
A|------------|
e|------------|

E|-----------9--10--13~--|
B|--6--8--9--------------|
G|-----------------------|
D|-----------------------|  x3
A|-----------------------|
e|-----------------------|


D-A-E-A


E|---------------------------------------------------------------|
B|------9h10-----------9--13~-------9h10-----------9--9--12--12--|
G|--11--------9-----------------11--------9----------------------|
D|---------------9/11------------------------9/11----------------|
A|---------------------------------------------------------------|
e|---------------------------------------------------------------|


        D         A                        E           A
And the sign said long haired,freaky people need not apply    x2


-End-
Suggest correction
Give kudos to tab author, rate the tab!
1 2 3 4 5
comments
print report bad tab
guest
You may want to rate the tab now too:
select rating
Wanna post a correction for this tab? Suggest correction