Oops, an error
Loading. Please wait.

Right Here Right Now Tab

version 4
version 4

Whole song

Interactive

1,637 views 9 this week
no commentswrite comment
1 2 3 4 5
x 3
add to favorites
×
Save as Personal and add changes to this tab that will be seen only by you. Learn more ›
×
You can save this tab as Personal to edit and correct it or add notes. All changes will be seen only by you. Learn more »
save as personal
new!
launch autoscroll
font size
0
reset
how to read this tab
guitar tuner
Autoscroll
slow
fast
+/-
esc
set tempo
stop
Fatboy Slim
Right Here, Right Now

With my ear and the help of other tabs on this site, I have here 
the basic structure of the song that can be played on guitar.
The song is in the key of A Dorian (or G major, same thing).

 Intro (guitar)
|-------------10----------------------------------|
|-10-12-13-12----13-12-10----10-12-10-13-12-10----|
|-------------------------12-------------------12-|
|-------------------------------------------------|
|-------------------------------------------------|
|-------------------------------------------------|
|
|(bass guitar)
|-------------------------------------------------|
|-------------------------------------------------|
|-------------------------------------------------|
|-5-----------7-----------3-----------2-----------|


Second riff
|------------------------------------------------------|
|------------------------------------------------------|
|------------------------------------------------------|
|----------------5--4-----------------------5--4-------|
|-------------5--------7--5--------------5--------7--5-|
|-5-5-7-8-5------------------5-5-7-8-5-----------------|


Tabbed by Maximuso911@comcast.net
Email me if any problems.
Suggest correction
Give kudos to tab author, rate the tab!
1 2 3 4 5
comments
print report bad tab
guest
Wanna post a correction for this tab? Suggest correction