Oops, an error
Loading. Please wait.

This Is Sally Hatchet Tab

1,151 views 3 this week
no commentswrite comment
1 2 3 4 5
please rate
add to favorites
launch autoscroll
font size
0
reset
how to read this tab
guitar tuner
Autoscroll
slow
fast
+/-
esc
set tempo
stop
Help us to improve Ultimate-Guitar.com Take our survey!
×
Author
Capo
1st fret
Artist: Father John Misty
Album: Fear Fun (2012)
Song: 08 - This is Sally Hatchet
http://www.subpop.com/artists/father_john_misty

Capo 1st fret (all chords are relative to the capo)

Chords used:
The (2) in the F#7 chord is an optional note, but sounds good if you can manage it.

  B7 C/G G  F#7  B  E  D  Em |
1|----0--3-(2)------0--2--0--|
2|-0--1--3--5----4--0--3--0--|
3|-2--0--0--3----4--1--2--0--|
4|-1--2--0--2----4--2--0--2--|
5|-2--3--2--4----2--2-----2--|
6|----3--3--2-------0-----0--|



Ohh...
B7 C/G G 

F#7

Verse 1:
B7       C/G           G         F#7   
Born the daughter of a comedian

C/G           C/G      
Middle of the eighties

C/G               F# B  E               C/G              
Someone turn that awful mouth-breather down

F#7
Or else

V2:
Sally Hatchet lives in a hole in the ground
The longer it keeps raining the more she has to struggle to maintain a wonderful time
Oh yeah

D         Em          C
Go on and laugh it up without me
I've got smoke in my lungs
And a past life in the trunk


F#7
Ohhhh

B7 C/G G
Ohh...

F#7

V3:
Could he rattle by the way that she empties a few clips out
Do I have a choice now
Point that thing away from me
Lady

Outro
B7 C/G G

Mess around with these notes.  There's some overlap as it progresses.
1|-5h7-7-7p5-5---|--12h14-14--14p12-12----------------|
2|---------------|------------------------------------|
3|---------------|------------------------------------|
4|---------------|------------------------------------|
5|---------------|------------------------------------|
6|---------------|------------------------------------|
Suggest correction
Give kudos to tab author, rate the tab!
1 2 3 4 5
comments
print report bad tab
guest
You may want to rate the tab now too:
select rating
Wanna post a correction for this tab? Suggest correction