Oops, an error
Loading. Please wait.

I Like Not Knowing tab

916 views 18 this week
no commentswrite comment
1 2 3 4 5
x 3
add to favorites
×
Save as Personal and add changes to this tab that will be seen only by you. Learn more ›
×
You can save this tab as Personal to edit and correct it or add notes. All changes will be seen only by you. Learn more »
launch autoscroll
font size
0
reset
how to read this tab
guitar tuner
edit
Autoscroll
slow
fast
+/-
esc
set tempo
stop
Fatherson - I Like Not Knowing                                                                  Alex Twist


Tunings a bit weird for this. Basically tune half step down but then tune the G string and high E string down 
a further half step, 

leaving you with this 
   
Tuning: Eb Ab Db F Bb D

In this tab for the rhythm chord parts I will put how many bars you play using that chord, 

leaving you free to use whatever strumming pattern you like


[Intro]

D#|--0-----------------------|
A#|--0-----------------------|
F#|--9-(strum for 16 beats)--|
C#|--9-----------------------|
G#|--7-----------------------|
D#|--0-----------------------|


(Continued)

Rhythm (strummed)

D#|--0------------0------------0------------0-0-0-0-0-0-0-0-|
A#|--0------------0------------0------------0-0-0-0-0-0-0-0-|
F#|--0-(4 beats)--0-(4 beats)--0-(4 beats)--0-0-0-0-0-0-0-0-|
C#|--11-----------7------------11-----------7-7-7-7-9-9-9-9-|
G#|--11-----------7------------11-----------7-7-7-7-9-9-9-9-|
D#|--9------------5------------9------------5-5-5-5-7-7-7-7-|

Lead

D#|--------15--------13------12----12---13-13-13-13-13-13-13--|
A#|-----12--------12------------12------12-12-12-12-12-12-12--|
F#|--14--------14---------------------------------------------|
C#|-----------------------------------------------------------|
G#|-----------------------------------------------------------|
D#|-----------------------------------------------------------|


[Verse]

D#|--0--------0----------------------------------------------------0--0--0--0--0-0-0-0--|
A#|--0--------0---------------------0------------------------------0--0--0--0--0-0-0-0--|
F#|--9--------0--------------0-------------0----------------0------0--0--0--0--0-0-0-0--|
C#|--9--------11----------------------11-----11----11--------------11-11-11-11-9-9-9-9--|
G#|--7--------11---------7-----7----------------11------7-----7----11-11-11-11-9-9-9-9--|
D#|--0--------9--------5---5-----5-------9------------5---5-----5--9--9--9--9--7-7-7-7--|

   (strummed)
D#|--0-----------0-----------------------0-----------0-----------0--0--0--0--0-0-0-0--|
A#|--0-----------0-----------------------0-----------0-----------0--0--0--0--0-0-0-0--|
F#|--9(8 beats)--0(8 beats)---(4 beats)--0(4 beats)--0(4 beats)--0--0--0--0--0-0-0-0--|
C#|--9-----------11----------7-----------11----------7-----------11-11-11-11-9-9-9-9--|
G#|--7-----------11----------7-----------11----------7-----------11-11-11-11-9-9-9-9--|
D#|--0-----------9-----------5-----------9-----------5-----------9--9--9--9--7-7-7-7--|


D#|-------0-------0---------|
A#|------0---------0--------|
F#|-----9-----------9-------|
C#|----9-------------9------|
G#|---7---------------7-----|
D#|--0-----------------0----|

Pre Chorus

D#|--0----0----0--------0----0-0-0-0-0-0-0-0--|
A#|--0----0----0--------0----0-0-0-0-0-0-0-0--|
F#|--0----0----9--------0----0-0-0-0-0-0-0-0--|
C#|--11---7----9--------11---6-6-6-6-7-7-7-7--|
G#|--11---7----7--------11---6-6-6-6-7-7-7-7--|
D#|--9----5----0--------9----4-4-4-4-5-5-5-5--|


[Chorus]

D#|--0-----------------------|
A#|--0-----------------------|
F#|--9-(strum for 16 beats)--|
C#|--9-----------------------|
G#|--7-----------------------|
D#|--0-----------------------|

Rhythm (strummed)

D#|--0------------0------------0------------0-0-0-0-0-0-0-0--0----|
A#|--0------------0------------0------------0-0-0-0-0-0-0-0--0----|
F#|--0-(4 beats)--0-(4 beats)--0-(4 beats)--0-0-0-0-0-0-0-0--9----|
C#|--11-----------7------------11-----------7-7-7-7-9-9-9-9--9----|
G#|--11-----------7------------11-----------7-7-7-7-9-9-9-9--7----|
D#|--9------------5------------9------------5-5-5-5-7-7-7-7--0----|

Lead

D#|--------15--------13------12----12---13-13-13-13-13-13-13--|
A#|-----12--------12------------12------12-12-12-12-12-12-12--|
F#|--14--------14---------------------------------------------|
C#|-----------------------------------------------------------|
G#|-----------------------------------------------------------|
D#|-----------------------------------------------------------|


[Verse 2]

Constantly Repeated over the bass line

D#|------------------------|
A#|------------------------|
F#|------------------------|
C#|--6---6---6---6---------|
G#|----9---9---9---9 etc.--|
D#|------------------------|

Pre Chorus 2

D#|--0----0----0--------0----0----0---------0----0----0--------0----0-0-0-0-0-0-0-0--|
A#|--0----0----0--------0----0----0---------0----0----0--------0----0-0-0-0-0-0-0-0--|
F#|--0----0----0--------0----0----0---------0----0----0--------0----0-0-0-0-0-0-0-0--|
C#|--9----7----9--------6----7----7---------11---7----9--------11---6-6-6-6-7-7-7-7--|
G#|--9----7----7--------6----7----7---------11---7----7--------11---6-6-6-6-7-7-7-7--|
D#|--7----5----0--------4----5----0---------9----5----0--------9----4-4-4-4-5-5-5-5--|


[Chorus]

D#|--0-----------------------|
A#|--0-----------------------|
F#|--9-(strum for 16 beats)--|
C#|--9-----------------------|
G#|--7-----------------------|
D#|--0-----------------------|

Rhythm (strummed)

D#|--0------------0------------0------------0-0-0-0-0-0-0-0--|
A#|--0------------0------------0------------0-0-0-0-0-0-0-0--|
F#|--0-(4 beats)--0-(4 beats)--0-(4 beats)--0-0-0-0-0-0-0-0--|
C#|--11-----------7------------11-----------7-7-7-7-9-9-9-9--|
G#|--11-----------7------------11-----------7-7-7-7-9-9-9-9--|
D#|--9------------5------------9------------5-5-5-5-7-7-7-7--|

Lead

D#|--------15--------13------12----12---13-13-13-13-13-13-13--|
A#|-----12--------12------------12------12-12-12-12-12-12-12--|
F#|--14--------14---------------------------------------------|
C#|-----------------------------------------------------------|
G#|-----------------------------------------------------------|
D#|-----------------------------------------------------------|


[After Chorus]

D#|-------0-------0---------|
A#|------0---------0--------|
F#|-----9-----------9-------|
C#|----9-------------9------|
G#|---7---------------7-----|
D#|--0-----------------0----|

Oh No Oh No Oh No          OOHHH NOOOO

D#|---------------------------------|        ---------------------------------|
A#|---------------------------------|        ---------------------------------|
F#|---------------------------------|        ---------------------------------|
C#|---------------------------------|  x4    --6-6-6-6-6-6-6-6-6-6-6-6-6-6-6-6|x3
G#|--7-7-7-7-7-7-7-7-7-7-7-7-7-7-7-7|        --7-7-7-7-7-7-7-7-7-7-7-7-7-7-7-7|
D#|--0-0-0-0-0-0-0-0-0-0-0-0-0-0-0-0|        --0-0-0-0-0-0-0-0-0-0-0-0-0-0-0-0|


[Chorus]


D#|--0-----------------------|
A#|--0-----------------------|
F#|--9-(strum for 16 beats)--|
C#|--9-----------------------|
G#|--7-----------------------|
D#|--0-----------------------|

Rhythm (strummed)

D#|--0------------0------------0------------0-0-0-0-0-0-0-0--|
A#|--0------------0------------0------------0-0-0-0-0-0-0-0--|
F#|--0-(4 beats)--0-(4 beats)--0-(4 beats)--0-0-0-0-0-0-0-0--|
C#|--11-----------7------------11-----------7-7-7-7-9-9-9-9--|
G#|--11-----------7------------11-----------7-7-7-7-9-9-9-9--|
D#|--9------------5------------9------------5-5-5-5-7-7-7-7--|

Lead

D#|--------15--------13------12----12---13-13-13-13-13-13-13--|
A#|-----12--------12------------12------12-12-12-12-12-12-12--|
F#|--14--------14---------------------------------------------|
C#|-----------------------------------------------------------|
G#|-----------------------------------------------------------|
D#|-----------------------------------------------------------|

D#|--0-----------------------|
A#|--0-----------------------|
F#|--9-(strum for 16 beats)--|
C#|--9-----------------------|
G#|--7-----------------------|
D#|--0-----------------------|

Rhythm (strummed)

D#|--0------------0------------0------------0-0-0-0-0-0-0-0--|
A#|--0------------0------------0------------0-0-0-0-0-0-0-0--|
F#|--0-(4 beats)--0-(4 beats)--0-(4 beats)--0-0-0-0-0-0-0-0--|
C#|--11-----------7------------11-----------7-7-7-7-9-9-9-9--|
G#|--11-----------7------------11-----------7-7-7-7-9-9-9-9--|
D#|--9------------5------------9------------5-5-5-5-7-7-7-7--|

Lead

D#|--------15--------13------12----12---13-13-13-13-13-13-13--|
A#|-----12--------12------------12------12-12-12-12-12-12-12--|
F#|--14--------14---------------------------------------------|
C#|-----------------------------------------------------------|
G#|-----------------------------------------------------------|
D#|-----------------------------------------------------------|


[End]

D#|--0-0-0-0\\\|
A#|--0-0-0-0\\\|
F#|--9-9-9-9\\\|
C#|--9-9-9-9\\\|
G#|--7-7-7-7\\\|
D#|--0-0-0-0\\\|



************************************

| \  Slide down

************************************

            
            
Suggest correction
Creating personal tab
Creating personal tab
You can edit any tab online and save it as your Personal.

You can edit, replace or remove any tab part or add personal notes – all changes will be seen only by you.

Personal tabs can be accessed anytime from any device, even offline.
Learn more »
Give kudos to tab author, rate the tab!
1 2 3 4 5
comments
print report bad tab
guest
You may want to rate the tab now too:
select rating
Wanna post a correction for this tab? Suggest correction