Oops, an error
Loading. Please wait.

Be My Guest bass

25 views 3 this week
no commentswrite comment
1 2 3 4 5
3 more votes to show rating
add to favorites
×
Save as Personal and add changes to this tab that will be seen only by you. Learn more ›
×
You can save this tab as Personal to edit and correct it or add notes. All changes will be seen only by you. Learn more »
launch autoscroll
font size
0
reset
guitar tuner
edit
Autoscroll
slow
fast
+/-
esc
set tempo
stop
Author
Be My Guest
Fats Domino at his best.  This single  peaked at number 11 UK
In 1959. Tab by bass50611. Not exact but, as I would play it on 
Stage with a band and it does fit.. Play as a walking bass line

Intro: SAX START

Verse 1:
G|-----------------------------------------------------------------------|
D|---------------5--8--5-----------------7--10--7----------------5--8--5-|
A|---5--8--5---6-------------5--8--5---8-------------5--8--5---6---------|
E|-6-----------------------6-----------------------6---------------------|

G|-----------------------|
D|-------------8---------|
A|-------8--8----5--6--8-|
E|-6--6------------------|

Verse 2:
G|-----------------------------------------------------------------------|
D|---------------5--8--5-----------------7--10--7----------------5--8--5-|
A|---5--8--5---6-------------5--8--5---8-------------5--8--5---6---------|
E|-6-----------------------6-----------------------6---------------------|

G|-------------------------|
D|--------------8--5--8----|
A|-------8--8------------8-|
E|-6--6--------------------|

Bridge:
G|-----------------------------------------------------------------------|
D|---5--8--5-----------------7--10--7----------------5--8--5-------------|
A|-6-------------5--8--5---8-------------5--8--5---6-------------5--8--5-|
E|-------------6-----------------------6-----------------------6---------|

G|-----------------------|
D|---7--10--7---8------5-|
A|-8--------------5--8---|
E|-----------------------|

Verse 3:
G|-----------------------------------------------------------------------|
D|---------------5--8--5-----------------7--10--7----------------5--8--5-|
A|---5--8--5---6-------------5--8--5---8-------------5--8--5---6---------|
E|-6-----------------------6-----------------------6---------------------|

G|-------------------------|
D|--------------8--5--8----|
A|-------8--8------------8-|
E|-6--6--------------------|

Sax Solo:                            (Play This x3)
G|------------------------------------------------|
D|---------------5--8--5-----7--10--7-------------|
A|---5--8--5---6-----------8--------------5--8--5-|
E|-6------------------------------------6---------|

G|-------------------------------------------------|
D|---------------5--8--5-----7--10--7---8--5--8----|
A|---5--8--5---6-----------8---------------------8-|
E|-6-----------------------------------------------|

Bridge:
G|-----------------------------------------------------------------------|
D|---5--8--5-----------------7--10--7----------------5--8--5-------------|
A|-6-------------5--8--5---8-------------5--8--5---6-------------5--8--5-|
E|-------------6-----------------------6-----------------------6---------|

G|-----------------------|
D|---7--10--7---8------5-|
A|-8--------------5--8---|
E|-----------------------|

Verse 3:
G|-----------------------------------------------------------------------|
D|---------------5--8--5-----------------7--10--7----------------5--8--5-|
A|---5--8--5---6-------------5--8--5---8-------------5--8--5---6---------|
E|-6-----------------------6-----------------------6---------------------|

G|-------------------------|
D|--------------8--5--8----|
A|-------8--8------------8-|
E|-6--6--------------------|

Outro:                                (Repeat To Fade/End)
G|------------------------------------------------|
D|---------------5--8--5-----7--10--7---8---------|
A|---5--8--5---6-----------8--------------5--8--5-|
E|-6----------------------------------------------|

,
Suggest correction
Creating personal tab
Creating personal tab
You can edit any tab online and save it as your Personal.

You can edit, replace or remove any tab part or add personal notes – all changes will be seen only by you.

Personal tabs can be accessed anytime from any device, even offline.
Learn more »
Give kudos to tab author, rate the tab!
1 2 3 4 5
comments
print report bad tab
guest
You may want to rate the tab now too:
select rating
Wanna post a correction for this tab? Suggest correction