Oops, an error
Loading. Please wait.

Aint Misbehavin Chords

version 3
version 3

Whole song

16 views 9 this week
no commentswrite comment
1 2 3 4 5
3 more votes to show rating
add to favorites
launch autoscroll
font size
0
reset
transpose
0
reset
simplify chords
display chords
guitar tuner
Autoscroll
slow
fast
+/-
esc
set tempo
stop
Help us to improve Ultimate-Guitar.com Take our survey!
×
Author
Difficulty
intermediate
Ain't misbehavin'   Fats Waller, Harry Brooks Andy Razaf 
Tabbed by: Mike Lydiat
E-mail: mike@docsworkshop.co.uk
Tuning:EADGBE

Similar chord pattern in first 4 bars to my arrangement of Bewitched bothered and bewildered

[VERSE CHORD SHAPES]
   A  A#dim7 Bm7 Cdim7 C#7  Dmaj7 B9  F#m  Bm7 E7
e|-0--x------2---x-----x----2-----x---2----2---0---|
B|-2--2------3---4-----2----2-----2---2----3---0---|
G|-2--0------2---3-----4----2-----2---2----2---1---|
D|-2--2------4---4-----3----0-----1---4----4---0---|
A|-0--1------2---3-----4----0-----2---4----2---2---|
E|-x--x------x---2-----x----x-----x---2----2---0---|

[CHORUS CHORD SHAPES]                                
   F#m  D7  F#dim  F#m7  B  B7  E   B9  Eaug
e|-2----2---2------2-----2--2---0---0---0--|
B|-2----1---3------2-----4--4---0---2---1--|
G|-2----2---2------2-----4--2---1---2---x--|
D|-4----0---0------2-----4--4---2---1---2--|
A|-4----0---0------4-----2--2---2---2---2--|
E|-2----x---x------2-----2--2---0---x---0--|

[Verse 1]
A            A#dim7       Bm7          Cdim7
   No one to talk with,   all by myself
A            C#7            Dmaj7     B9 
   No one to walk with, but I'm happy on the shelf
A              F#m     Bm7       E        A   F#m   Bm7   E 
    Ain't misbehavin', savin' my love for you
        
[Verse 2]
A             A#dim7   Bm7        Cdim7 
   I know for certain, just who I love
A                   C#7            Dmaj7        B9 
   I'm through with flirtin', it's you that I'm dreamin' of
A         F#m          Bm7       E        A    Dmaj7   A   C#7  
    Ain't misbehavin', savin' my love for you

[Chorus]
F#m                  D7 
    Like Jack Horner    in the corner
F#dim                      F#m7 
     Don't go no where,    what do I care?
B             F#m7      B7      E   F#m   B9    Eaug 
  Your kisses are worth waiting for be  - lieve me
  
[Verse 3]
A               A#dim7      Bm7           Cdim7 
   I don't stay out late, I don't care to go
A            C#7              Dmaj7     B9 
   I'm home about eight, just me and my radio
A              F#m     Bm7       E        A
    Ain't misbehavin', savin' my love for you 
Suggest correction
Give kudos to tab author, rate the tab!
1 2 3 4 5
comments
print report bad tab
guest
You may want to rate the tab now too:
select rating
Wanna post a correction for this tab? Suggest correction