Oops, an error
Loading. Please wait.

Party Pig tab

52 views 3 this week
no commentswrite comment
1 2 3 4 5
3 more votes to show rating
add to favorites
×
Save as Personal and add changes to this tab that will be seen only by you. Learn more ›
×
You can save this tab as Personal to edit and correct it or add notes. All changes will be seen only by you. Learn more »
launch autoscroll
font size
0
reset
how to read this tab
guitar tuner
edit
Autoscroll
slow
fast
+/-
esc
set tempo
stop
Party Pig 
by Fatso Jetson. 

most of the song is played in fast punk style down and up strumming (four down and four up)

[Riff 1]
D|-------------------------------------------------------------|
B|-------------------------------------9-6-9-6-----9-6-9-6-----|
G|-2-2-2-2-2-2-2-2-0-0-0-0-0-0-0-0-6-6-9-6-9-6-6-6-9-6-9-6-6-6-|
D|-2-2-2-2-2-2-2-2-0-0-0-0-0-0-0-0-6-6-6-6-6-6-6-6-6-6-6-6-6-6-|
G|-2-2-2-2-2-2-2-2-0-0-0-0-0-0-0-0-6-6---------6-6---------6-6-|
D|-------------------------------------------------------------|

[Riff 2]
D|---------------------------------------------------------------------|
B|---------------------------------------------9-6-9-6-----9-6-9-6-----|
G|-10-10-10-10-10-10-10-10-0-0-0-0-0-0-0-0-6-6-9-6-9-6-6-6-9-6-9-6-6-6-|
D|-10-10-10-10-10-10-10-10-0-0-0-0-0-0-0-0-6-6-6-6-6-6-6-6-6-6-6-6-6-6-|
G|-10-10-10-10-10-10-10-10-0-0-0-0-0-0-0-0-6-6---------6-6---------6-6-|
D|---------------------------------------------------------------------|

[Riff 3]
D|----------------------------------------4h6~~6-6p4-------| *there are two licks playing a harmony.
B|------------------------------------4h6-------------6~~--|  this is the one i could make
G|-3-3-3-3-3-3-3-3-5-5-5-5-5-5-5-5-4~~--------------4------|  out better
D|-3-3-3-3-3-3-3-3-5-5-5-5-5-5-5-5-4-----------------------|
G|-3-3-3-3-3-3-3-3-5-5-5-5-5-5-5-5-4-----------------------|
D|---------------------------------------------------------|


[Chorus]
                                                             *guitar harmony*            
D|-7--x-x--7-------7--x-x--7--x-x---------------------------------|    |------------------------------|
B|-7--x-x--7--x-x--7--x-x--7--x-x---------------------------------|    |-13p10-13p10~~----------------|
G|-4--x-x--4--x-x--4--x-x--4--x-x-/10--13p10-13p10~~--------------|*or*|---------------12-12-13-14~~--|
D|-4--x-x--4--x-x--4--x-x--4--x-x-/10----------------10-10-11-12--|    |------------------------------|
G|-4--x-x--4--x-x--4--x-x--4--x-x-/10-----------------------------|    |------------------------------|
D|----------------------------------------------------------------|    |------------------------------|
(another option besides have to choose one of the two harmonies would be to play them both like parts
 of a chord. it's not as sharp and clear that way but at least you're getting all that dissonant goodness) 


[Bridge]

D|-10------7-------4-------10------7-------3----2--0--2--3--|
B|-10------7-------4-------10------7-------3----3--0--3--3--|
G|-7-------4-------1-------7-------4-------0----------------|
D|-7-------4-------1-------7-------4-------0----------------|
G|-7-------4-------1-------7-------4-------0----------------|
D|----------------------------------------------------------|


[Outro]

the outro is the same as the bridge, except when you land on the G there are a few variations, listed
below

D|-3----5--3--5-3--|       end of this  D|-3----2--0--2-0----|
B|-3----5--3--5-3--| 2x                 B|-3----3--3--3-3----|
G|-0---------------|                    G|-0-----------------|                                       
D|-0---------------|                    D|-0-----------------|     
G|-0---------------|                    G|-0-----------------|  
D|-----------------|                    D|-------------------|     
                    
(Lyrics and where the riffs go. some of the lyrics may be a little off.) 


[RIFF 1]
There's a Creature of the Future
Lost Track About an Hour Ago
We Gotta Make Time
Or the Rest of the World Will Know


[RIFF 2]
Evolve Like a Virus
He's Happy Piggy on Drugs


[RIFF 3]
Gotta Have a Good Time


[RIFF 2]
Lay Down, You're Feeling So Slow
(no idea. sorry.)


[RIFF 3]
Bring it Down the Road


[CHORUS]
He's Feeling Fragile
Wet Ice So Stiff on the Bone
Don't Need the Excuses
Just Feed the Need

Take a Chance (Yeah) With a Stranger 
Look Both Ways Before You Go
Left in the Sun
Took a Bullet 'bout an Hour Ago

She's Easy, So Lonely 
Loose Liver, Blow to the Head
Lost Track About a Year Ago
Been Breaking the Bread

Just Digging a Deeper Hole
I'm Pullin', I'm Pullin' it Down

I'm Shakin' with the Crack in the Ground

Just Feed the Monster
Pig Livin' One Foot in the Grave

I'll Be Your Slave

(Chorus repeats and the outro lyrics are the first verse repeated)



************************************

| x  Dead note
| h  Hammer-on
| p  Pull-off
| /  Slide up
| ~  Vibrato

************************************
Suggest correction
Creating personal tab
Creating personal tab
You can edit any tab online and save it as your Personal.

You can edit, replace or remove any tab part or add personal notes – all changes will be seen only by you.

Personal tabs can be accessed anytime from any device, even offline.
Learn more »
Give kudos to tab author, rate the tab!
1 2 3 4 5
comments
print report bad tab
guest
You may want to rate the tab now too:
select rating
Wanna post a correction for this tab? Suggest correction