Oops, an error
Loading. Please wait.

Input bass

by Faunts
280 views 1 this week
1 commentread comment
1 2 3 4 5
3 more votes to show rating
add to favorites
×
Save as Personal and add changes to this tab that will be seen only by you. Learn more ›
×
You can save this tab as Personal to edit and correct it or add notes. All changes will be seen only by you. Learn more »
launch autoscroll
font size
0
reset
guitar tuner
edit
Autoscroll
slow
fast
+/-
esc
set tempo
stop
Author
Difficulty
Main Riff

G|-----------------------------2-3--|
D|--------33--1-1--55--55--55-------|
A|33--33----------------------------|
E|----------------------------------|

Varies a little bit later

G|----8----------------------------2--3--|
D|----------3333--1111--5555-555\--------|
A|3333-333\------------------------------|
E|---------------------------------------|
Suggest correction
Creating personal tab
Creating personal tab
You can edit any tab online and save it as your Personal.

You can edit, replace or remove any tab part or add personal notes – all changes will be seen only by you.

Personal tabs can be accessed anytime from any device, even offline.
Learn more »
Give kudos to tab author, rate the tab!
1 2 3 4 5
comments
print report bad tab
1 comment total.
0 reply
Chaberc1 10 Jul 22, 2012 10:35 AM

PhantomGourmet you are the man!
You think you could put up Bass tabs for Out On A Limb and It Hurts Me All The Time when you get a chance?

guest
You may want to rate the tab now too:
select rating
Wanna post a correction for this tab? Suggest correction