Oops, an error
Loading. Please wait.

Lights Are Always On Bass Tab

4 views 1 this week
no commentswrite comment
1 2 3 4 5
2 more votes to show rating
add to favorites
launch autoscroll
font size
0
reset
guitar tuner
Autoscroll
slow
fast
+/-
esc
set tempo
stop
Help us to improve Ultimate-Guitar.com Take our survey!
×
Author
Difficulty
intermediate
Here we are again with another Faunts tab
It's a little muddy to hear the bass sometimes,
but it's a simple, fun bass line for the most part.


[Guitar Intro]

Bass in 0:24

Play 4 times
G|-------------|------------|------------|------------|
D|---------17~-|--------17~-|--------17~-|--------17~-|
A|-------------|------------|------------|------------|
E|-15-15~------|-15-15~-----|-13/15~-----|-15-15~-----|


[Verse]

Play 4 times
Follow the kick for the rhythm
G|-14-14-----14--|--------17------|-14-14-----14--|--------17--16-|
D|---------------|-15-15------17--|---------------|-15-15---------|
A|--------15-----|----------------|--------15-----|---------------|
E|---------------|----------------|---------------|---------------|

G|-14-14-----14--|--------17------|---------------|--------17--16-|
D|---------------|-15-15------17--|-17-17-----17--|-14-14---------|
A|--------15-----|----------------|--------15-----|---------------|
E|---------------|----------------|---------------|---------------|


[Instrumental Break]

Play 4 times
G|-------------|------------|
D|---------17~-|--------17~-|
A|-------------|------------|
E|-13/15~------|-15-15~-----|


[Verse]

Play 4 times
G|-14-14-----14--|--------17------|-14-14-----14--|--------17--16-|
D|---------------|-15-15------17--|---------------|-15-15---------|
A|--------15-----|----------------|--------15-----|---------------|
E|---------------|----------------|---------------|---------------|

G|-14-14-----14--|--------17------|---------------|--------17--16-|
D|---------------|-15-15------17--|-17-17-----17--|-14-14---------|
A|--------15-----|----------------|--------15-----|---------------|
E|---------------|----------------|---------------|---------------|


[Chorus]

Play 2 times
G|-------------|------------|------------|------------|
D|---------17~-|--------17~-|--------17~-|--------17~-|
A|-------------|------------|------------|------------|
E|-15-15~------|-15-15~-----|-13/15~-----|-15-15~-----|

Then
G|------------|------------|
D|--------17~-|--------17~-|
A|------------|------------|
E|-15-15~-----|-15-15~-----|


[Verse]

Bass drops out 1st time through
Then play 3 times
G|-14-14-----14--|--------17------|-14-14-----14--|--------17--16-|
D|---------------|-15-15------17--|---------------|-15-15---------|
A|--------15-----|----------------|--------15-----|---------------|
E|---------------|----------------|---------------|---------------|

G|-14-14-----14--|--------17------|---------------|--------17--16-|
D|---------------|-15-15------17--|-17-17-----17--|-14-14---------|
A|--------15-----|----------------|--------15-----|---------------|
E|---------------|----------------|---------------|---------------|


[Chorus]

Play through
G|-------------|------------|-------------|------------|
D|---------17~-|--------17~-|---------17~-|--------17~-|
A|-------------|------------|-------------|------------|
E|-15-15~------|-15-15~-----|-12/15~------|-15-15~-----|

G|-------------|------------|-------------|------------|
D|---------17~-|--------17~-|---------15~-|--------14~-|
A|-------------|------------|-------------|------------|
E|-12/15~------|-15-15~-----|-15\13~------|-13\12~-----|

G|-------------|--------12~-|--------10~-|--------12~-|
D|---------12~-|------------|------------|------------|
A|-------------|----10~-----|-10\8~------|-8/10~------|
E|-12/10~------|-10---------|------------|------------|

G|-------------|--------12~-|--------10~-|------------|----------|
D|---------12~-|------------|------------|--------10~-|----------|
A|-10----------|----10~-----|-10\8~------|-8----------|----10~---|
E|----10~------|-10---------|------------|----8-~-----|-8--------|


[Outro]

Play 4 times
G|--------------|---------|-----------|------12~-|
D|----10~-------|---------|----10~----|----------|
A|-8~-----8(10)-|----10~--|-8~-----8~-|-10~------|
E|--------------|-8~------|-----------|----------|

Play 4 times
G|--------12~-|--------12~-|
D|------------|------------|
A|-8/10~------|-10-10~-----|
E|------------|------------|

Play 2 times
G|--------------|---------|-----------|------12~-|
D|----10~-------|---------|----10~----|----------|
A|-8~-----8(10)-|----10~--|-8~-----8~-|-10~------|
E|--------------|-8~------|-----------|----------|

Then hold
G|-----------|
D|-----------|
A|--8~-------|
E|-----------|


Symbol Key:
/   Slide up
\   Slide down
~   Let ring
( ) Hammer on


And that's it. You can pick up the timing
pretty quickly if you just follow the drums.

As usual any comments, corrections, etc.
email me bambrown @ comcast .net


Suggest correction
Give kudos to tab author, rate the tab!
1 2 3 4 5
comments
print report bad tab
guest
You may want to rate the tab now too:
select rating
Wanna post a correction for this tab? Suggest correction