Oops, an error
Loading. Please wait.

M4 Part Ii Tab

8,166 views 21 this week
no commentswrite comment
1 2 3 4 5
accurate
x 3
add to favorites
launch autoscroll
font size
0
reset
how to read this tab
guitar tuner
Autoscroll
slow
fast
+/-
esc
set tempo
stop
Help us to improve Ultimate-Guitar.com Take our survey!
×
Author
-------------------------------------------------------------------------------
                             M4 Part II - Faunts
-------------------------------------------------------------------------------
Tabbed by: SPARTANMST
Email: rjameslloyd@yahoo.co.uk

Tuning: Standard Tuning

Note: This is for the Mass Effect version of the song

Link: http://www.youtube.com/watch?v=aLkSnCZMXSM

Use a distortion effect with a delay effect of about 0.35 seconds
(just experiment and see what sounds right)

Palm mute every note unless told otherwise.

(e-mail me if you need any help)

Intro
Play 12x

e|---------------------------------------------------------------------------|
B|0-7-7-7-0-7-7-7-0-5-5-0-8-8-8-h9p8-----------------------------------------|
G|---------------------------------------------------------------------------|
D|---------------------------------------------------------------------------|
A|---------------------------------------------------------------------------|
E|---------------------------------------------------------------------------|

After the line "Will you redeem, my life again, my life again..."
release your palm muting slightly so the notes sound slightly more agressive.
Play 4x

e|---------------------------------------------------------------------------|
B|0-7-7-0-7-7-0-7-0-5-5-0-8-8-8-h9p8-----------------------------------------|
G|---------------------------------------------------------------------------|
D|---------------------------------------------------------------------------|
A|---------------------------------------------------------------------------|
E|---------------------------------------------------------------------------|

(Singing starts again)
Play 8x

e|---------------------------------------------------------------------------|
B|0-7-7-7-0-7-7-7-0-5-5-0-8-8-8-h9p8-----------------------------------------|
G|---------------------------------------------------------------------------|
D|---------------------------------------------------------------------------|
A|---------------------------------------------------------------------------|
E|---------------------------------------------------------------------------|

(Bridge)

Release palm mute

Play 1x

e|10-7--10-7----10-7--10-7----9-7--9-7----12-10--12-10-----------------------|
B|---------------------------------------------------------------------------|
G|---------------------------------------------------------------------------|
D|---------------------------------------------------------------------------|
A|---------------------------------------------------------------------------|
E|---------------------------------------------------------------------------|

Verse
Play 4x

e|---------------------------------------------------------------------------|
B|7-5--7-5--7-5--7-5--7-5--7-5--7-5--7-5--8-7--8-7--8-7--8-7--8-10--8-10--10-|
G|---------------------------------------------------------------------------|
D|---------------------------------------------------------------------------|
A|---------------------------------------------------------------------------|
E|---------------------------------------------------------------------------|

e|---------------------------------------------------------------------------|
B|12--10-12------------------------------------------------------------------|
G|---------------------------------------------------------------------------|
D|---------------------------------------------------------------------------|
A|---------------------------------------------------------------------------|
E|---------------------------------------------------------------------------|

Bridge 2
Play x1

e|10-7--10-7----10-7--10-7----9-7--9-7----12-10--12-10-----------------------|
B|---------------------------------------------------------------------------|
G|---------------------------------------------------------------------------|
D|---------------------------------------------------------------------------|
A|---------------------------------------------------------------------------|
E|---------------------------------------------------------------------------|

At about 3:35 (3:43 in the YT video) into the song there is change in the notes played
(don't worry, this bit is easy)

Palm mute again

e|---------------------------------------------------------------------------|
B|5-5-5-5-5-5-5-5-5-5-5-5-5-5-5-5-5-5-5-5-5-5-5-5-5-5-5-5-5-5-5-5-3-3-3-3-3-3|
G|---------------------------------------------------------------------------|
D|---------------------------------------------------------------------------|
A|---------------------------------------------------------------------------|
E|---------------------------------------------------------------------------|

e|---------------------------------------------------------------------------|
B|-3-3-3-3-3-3-3-3-3-3-5-5-5-5-5-5-5-5-5-5-5-5-5-5-7-7-8-8-8-8-8-8-8-8-8-8-8-|
G|---------------------------------------------------------------------------|
D|---------------------------------------------------------------------------|
A|---------------------------------------------------------------------------|
E|---------------------------------------------------------------------------|

e|---------------------------------------------------------------------------|
B|8-8-8-8-8-7-7-7-7-7-7-7-7-7-7-7-7-7-7-7-7-3-3-3-3-3-3-3-3-3-3-3-3-3-3-3-3-5|
G|---------------------------------------------------------------------------|
D|---------------------------------------------------------------------------|
A|---------------------------------------------------------------------------|
E|---------------------------------------------------------------------------|

e|---------------------------------------------------------------------------|
B|-5-5-5-5-5-5-5-7-7-7-7-7-7-7-7-5-5-5-5-5-5-5-5-3-3-3-3-3-3-3-3-5-5-5-5-5-8-|
G|---------------------------------------------------------------------------|
D|---------------------------------------------------------------------------|
A|---------------------------------------------------------------------------|
E|---------------------------------------------------------------------------|

e|---------------------------------------------------------------------------|
B|p7h8-7-7-7-7-7-7-7-7-5-5-5-5-5-5-5-5-3-3-3-3-3-3-0-3-5-5-5-5-5-0-0-0-------|
G|---------------------------------------------------------------------2-2-2-|
D|---------------------------------------------------------------------------|
A|---------------------------------------------------------------------------|
E|---------------------------------------------------------------------------|

e|---------------------------------------------------------------------------|
B|2-2-2-2-2------------------------------------------------------------------|
G|---------------------------------------------------------------------------|
D|---------------------------------------------------------------------------|
A|---------------------------------------------------------------------------|
E|---------------------------------------------------------------------------|

Play 2x

release palm mute

e|10-7--10-7----10-7--10-7----10-7--10-7----10-7--10-7----9-7--9-7----9-7--9-|
B|---------------------------------------------------------------------------|
G|---------------------------------------------------------------------------|
D|---------------------------------------------------------------------------|
A|---------------------------------------------------------------------------|
E|---------------------------------------------------------------------------|

e|7----12-10----12-10--------------------------------------------------------|
B|---------------------------------------------------------------------------|
G|---------------------------------------------------------------------------|
D|---------------------------------------------------------------------------|
A|---------------------------------------------------------------------------|
E|---------------------------------------------------------------------------|

Play 8x

e|10-7--10-7----10-7--10-7----9-7--9-7----12-10--12-10-----------------------|
B|---------------------------------------------------------------------------|
G|---------------------------------------------------------------------------|
D|---------------------------------------------------------------------------|
A|---------------------------------------------------------------------------|
E|---------------------------------------------------------------------------|

Outro, Beginning of 'Part 2' (see below)


Play x1
palm mute

e|---------------------------------------------------------------------------|
B|0-7-7-7-0-7-7-7-0-5-5-0-8-8-8-h9p8-----------------------------------------|
G|---------------------------------------------------------------------------|
D|---------------------------------------------------------------------------|
A|---------------------------------------------------------------------------|
E|---------------------------------------------------------------------------|

e|---------------------------------------------------------------------------|
B|0-7-7-7-0-7-7-7-0-5-5-5-5-5-5-5--------------------------------------------|
G|---------------------------------------------------------------------------|
D|---------------------------------------------------------------------------|
A|---------------------------------------------------------------------------|
E|---------------------------------------------------------------------------|

That is everything you need to play the 'Standard version' of the song.
Yes I have stated that this is the extended Mass Effect version of the song.
If you wish to play the instrumental part of the song (the second half)
You can use a combination of the sections above and various notes on the 2nd, 3rd, and 
4th strings (ranging from 0 - 5 in terms of frets)
I may do a video explaning this part (as its more of a solo than a part you MUST play by 
the note)

Enjoy.


************************************

| /   slide up
| \   slide down
| h   hammer-on
| p   pull-off
| ~   vibrato
| +   harmonic
| x   Mute note
| b   Bend
| pb  Pre-bend
| br  Bend release
| pbr Pre-bend release
| brb Bend release bend

************************************
Suggest correction new What's this?
You can suggest a correction to this tab. Community and Mods will review your correction and vote to approve or reject it.
comments
We did not receive enough feedback on this tab! Please rate:
print report bad tab
1 2 3 4 5
guest
You may want to rate the tab now too:
select rating
Please do not post tabs as comments. Select "correction" instead!