Oops, an error
Loading. Please wait.

She Wont Go Away chords

211 views 21 this week
no commentswrite comment
1 2 3 4 5
x 7
add to favorites
×
Save as Personal and add changes to this tab that will be seen only by you. Learn more ›
×
You can save this tab as Personal to edit and correct it or add notes. All changes will be seen only by you. Learn more »
launch autoscroll
font size
0
reset
transpose
0
reset
simplify chords
display chords
guitar tuner
edit
Autoscroll
slow
fast
+/-
esc
set tempo
stop
Author
Strumming
There is no strumming pattern for this song yet. and get +5 IQ
SONG:   SHE WON'T GO AWAY
ARTIST: FAYE WEBSTER
TAB BY: DON CZARSKI
EMAIL:  GUITARZAN7@HOTMAIL.COM


             SHE WON'T GO AWAY
               FAYE WEBSTER


INTRO: 

GUITAR: (Main riff throughout the song
         during the VERSE).

  Dmaj7   Dmaj7  Amaj7(no5)  Dmaj7  A

E --2---2--4--2-----
B --2---2--2--2--2--
G --2---2--2--2--2--
D ------------------
A ------------------
E ------------------

STEEL GUITAR:

E --12-9----------------
B -------12-10-12br-10--
G ----------------------
D ----------------------
A ----------------------
E ----------------------


GUITAR:
  Dmaj7   Dmaj7  Amaj7(no5)  Dmaj7  A

E --2---2--4--2-----
B --2---2--2--2--2--
G --2---2--2--2--2--
D ------------------
A ------------------
E ------------------

STEEL GUITAR:

E --12-9------------------
B -------12-10-12br-12br--
G ------------------------
D ------------------------
A ------------------------
E ------------------------


NOTE: You can play the MAIN RIFF during the VERSE.
      I am NOT going to put it in however as it 
      would make the tab appear cluttered.

VERSE:
Dmaj7             A
  I think I have wants
        Dmaj7
So much time
           A
Over the course
            Dmaj7
Calling you mine
              A
You say it's fine
 A                F#           
But you won't go away

   F#
E -------------------
B -----5--------5----
G ---3---3----3---3--
D -4--------4--------
A -------------------
E -------------------


VERSE:
Dmaj7            A
 So, maybe next year
           Dmaj7 
Things will go
            A
Just as I planned
           Dmaj7 
Maybe who knows
              A
She could be done
 A                F#
But she won't go away

   F#
E -------------------
B -----5--------5----
G ---3---3----3---3--
D -4--------4--------
A -------------------
E -------------------


CHORUS:
Dmaj7 
Two-oo hiding and I'm like
 A
Two-oo no one really likes
Dmaj7 
Two-oo happy all the time
 A   A
Two


INSTRUMENTAL:
  Dmaj7   Dmaj7  Amaj7(no5)  Dmaj7  A

E --2---2--4--2-----
B --2---2--2--2--2--
G --2---2--2--2--2--
D ------------------
A ------------------
E ------------------

STEEL GUITAR:

E --12-9----------------
B -------12-10-12br-10--
G ----------------------
D ----------------------
A ----------------------
E ----------------------


GUITAR:
  Dmaj7   Dmaj7  Amaj7(no5)  Dmaj7  A

E --2---2--4--2-----
B --2---2--2--2--2--
G --2---2--2--2--2--
D ------------------
A ------------------
E ------------------

STEEL GUITAR:

E --12-9------------------
B -------12-10-12br-12br--
G ------------------------
D ------------------------
A ------------------------
E ------------------------


VERSE:
Dmaj7
How, 
         A
Do I forget
        Dmaj7  
She's around
             A
Is there a trick
         Dmaj7
Made up ground
              A      
To be ok with it
                     F#
'Cause she won't go away

   F#
E -------------------
B -----5--------5----
G ---3---3----3---3--
D -4--------4--------
A -------------------
E -------------------


CHORUS:
Dmaj7 
Two-oo hiding and I'm like
 A
Two-oo no one really likes
Dmaj7 
Two-oo happy all the time
 A   A
Two


CHORUS:
Dmaj7 
Two-oo hiding and I'm like
 A
Two-oo no one really likes
Dmaj7 
Two-oo happy all the time
 A   A
Two


OUTRO:
INSTRUMENTAL:
  Dmaj7   Dmaj7  Amaj7(no5)  Dmaj7  A

E --2---2--4--2-----
B --2---2--2--2--2--
G --2---2--2--2--2--
D ------------------
A ------------------
E ------------------

STEEL GUITAR:

E --12-9----------------
B -------12-10-12br-10--
G ----------------------
D ----------------------
A ----------------------
E ----------------------


GUITAR:
  Dmaj7   Dmaj7  Amaj7(no5)  Dmaj7  A

E --2---2--4--2-----
B --2---2--2--2--2--
G --2---2--2--2--2--
D ------------------
A ------------------
E ------------------

STEEL GUITAR:

E --12-9------------------
B -------12-10-12br-12br--
G ------------------------
D ------------------------
A ------------------------
E ------------------------

(Begin FADE OUT)

INSTRUMENTAL:
  Dmaj7   Dmaj7  Amaj7(no5)  Dmaj7  A

E --2---2--4--2-----
B --2---2--2--2--2--
G --2---2--2--2--2--
D ------------------
A ------------------
E ------------------

STEEL GUITAR:

E --12-9----------------
B -------12-10-12br-10--
G ----------------------
D ----------------------
A ----------------------
E ----------------------


GUITAR:
  Dmaj7   Dmaj7  Amaj7(no5)  Dmaj7  A

E --2---2--4--2-----
B --2---2--2--2--2--
G --2---2--2--2--2--
D ------------------
A ------------------
E ------------------

STEEL GUITAR:

E --12-9------------------
B -------12-10-12br-12br--
G ------------------------
D ------------------------
A ------------------------
E ------------------------


            
            
Suggest correction
Creating personal tab
Creating personal tab
You can edit any tab online and save it as your Personal.

You can edit, replace or remove any tab part or add personal notes – all changes will be seen only by you.

Personal tabs can be accessed anytime from any device, even offline.
Learn more »
comments
print report bad tab
guest
You may want to rate the tab now too:
select rating
Wanna post a correction for this tab? Suggest correction