Oops, an error
Loading. Please wait.

Eyes On Me tab

version 1
version 1

Whole song

Interactive

16,505 views 3 this week
2 commentsread comments
1 2 3 4 5
x 7
add to favorites
×
Save as Personal and add changes to this tab that will be seen only by you. Learn more ›
×
You can save this tab as Personal to edit and correct it or add notes. All changes will be seen only by you. Learn more »
launch autoscroll
font size
0
reset
how to read this tab
guitar tuner
edit
Autoscroll
slow
fast
+/-
esc
set tempo
stop
Author
Difficulty
Title  : Eyes On Me
Artist : Faye Wong
Tabber : kring/tiane
email  : kristianeloyola@yahoo.com


ang cute ng melody ng song na to, bagay pangkasal. hehe..
maraming salamat kay thor sa pagtranscribe ng first verse sa piano

para to kay squall ng buhay ko.ü

wuh!!! FF8 rocks!!
elow sa 'the flagpoles' [jeff, aries, ron, mak] =p

mas maganda kung may kajam kayo na naggigitara rito..
sorry kung walang mga adlib. enjoy!


[Verse 1]

-----------------------|------------------------|
----------7~---10-7~---|--------7---------------|
----7---9--------------|------9---7~-----7-9~---|
--7--------------------|---------------9--------|
-----------------------|------------------------|
-----------------------|------------------------|
    D             Bm     G               A
When ever sang my song, on the stage, on my own


------------------9~---|-9-10-7~-----7----------|
----------7~---10------|----------10---10~------|
----7---9--------------|------------------------|
--7--------------------|------------------------|
-----------------------|------------------------|
-----------------------|------------------------|
    D             Bm     G                     A
Whenever said my words, wishing they would be heard


-----10--10-9-7-7------|-------7-7--------------|
--10-------------10~---|---7-10---10--8-8---7---|
-----------------------|------------------9-----|
-----------------------|------------------------|
-----------------------|------------------------|
-----------------------|------------------------|
  Bm                A            G               A
I saw you smiling at me, is it real or just my fantasy?


-----------------------|------------------------|
--7---7-8-8-7----------|---------7-8-10---------|
----9---------9-9-7~---|-----7-9--------9~------|
-----------------------|---9--------------------|
-----------------------|------------------------|
-----------------------|------------------------|
 Bm                             A        G                A
You'll always be there in the corner of this tiny little bar

[Verse 2]

-----------------------|------------------------|
----------7~---10-7~---|-------7----------------|
----7---9--------------|-----9---7~-----7-9~----|
--7--------------------|--------------9---------|
-----------------------|------------------------|
-----------------------|------------------------|
     D                  Bm     G                     A
My last night here with you, same old song just once more


------------------9~---|-9-10-7~-----7----------|
----------7~---10------|----------10---10~------|
----7---9--------------|------------------------|
--7--------------------|------------------------|
-----------------------|------------------------|
-----------------------|------------------------|
     D                  Bm      G             A
My last night here with you? Maybe yes, maybe no


-----10-10-9-7-7-------|-------7-7--------------|
--10-------------10----|---7-10---10--8---7-----|
-----------------------|----------------7----9~-|
-----------------------|------------------------|
-----------------------|------------------------|
-----------------------|------------------------|
   Bm               A                  G                      A
I kind of liked it your way, how you shyly placed your eyes on me


--------------------|---------------------------|
------7-8---10~-----|--10-8---7~----------------|
--7-9---------------|-------7-----9--7~---------|
--------------------|---------------------------|
--------------------|---------------------------|
--------------------|---------------------------|
 Bm           A                G     D ---- D7
Did you ever know, that I had mine on you....


[Chorus 1]

------------9-7-7~-----|-----7-9-10-7-----------|
-----7---10------------|--------------10h-9-10~-|
--7--------------------|------------------------|
-----------------------|------------------------|
-----------------------|------------------------|
-----------------------|------------------------|
               G                           D
Darling, so there you are, with that look on your face


-----------------------|------7-7---------------|
--7-8-10-10-8s-7h-8~---|-8-10-----10s-9h-10~----|
-----------------------|------------------------|
-----------------------|------------------------|
-----------------------|------------------------|
-----------------------|------------------------|
               B#                      D     D7
As if you're never hurt, as if you're never down


-------------9--7-7~---|----7-7-9-10-9-------7~-|
------7---10-----------|---------------10~-7----|
--7--------------------|------------------------|
-----------------------|------------------------|
-----------------------|------------------------|
-----------------------|------------------------|
                G                             Fm        B
Shall I be the one for you, who pinches you softly but sure


----------10-----------|------------------------|
--10-10-8----8-8-------|-------7-7--------------|
-----------------------|---7-9----9-7-7-9-7~----|
-----------------------|------------------------|
-----------------------|------------------------|
-----------------------|------------------------|
     Em                          A                    D
If frown is shown then, I will know that you are no dreamer

[Verse 3]

-----------------------|------------------------|
----------7~---10-7~---|-------7----------------|
----7---9--------------|-----9---7~-----7-9~----|
--7--------------------|--------------9---------|
-----------------------|------------------------|
-----------------------|------------------------|
    D             Bm     G                A
So let me come to you, close as I want to be


------------------9~---|-9-10-7~-----7----------|
----------7~---10------|----------10---10~------|
----7---9--------------|------------------------|
--7--------------------|------------------------|
-----------------------|------------------------|
-----------------------|------------------------|
  D              Bm       G                      A
Close enough for me, to feel your heart beating fast


-----10-10-9-7-7-------|-------7-7--------------|
--10-------------10----|---7-10---10--8---7-----|
-----------------------|----------------7----9~-|
-----------------------|------------------------|
-----------------------|------------------------|
-----------------------|------------------------|
     Bm                A                 G                  A
And stay there as I whisper, how I love your peaceful eyes on me


---------------------|--------------------------|
------7-8---10~------|-10-8---7~----------------|
--7-9----------------|------7-----9--7~---------|
---------------------|--------------------------|
---------------------|--------------------------|
---------------------|--------------------------|
 Bm           A                G      D --- D7
Did you ever know, that I had mine on you?

[Chorus 2]

------------9-7-7~-----|-----7-9-10-7-----------|
-----7---10------------|--------------10h-9-10~-|
--7--------------------|------------------------|
-----------------------|------------------------|
-----------------------|------------------------|
-----------------------|------------------------|
               G                             D
Darling, so share with me, your love if you have enough


-----------------------|------7-7---------------|
--7-8-10-10-8s-7h-8~---|-8-10-----10s-9h-10~----|
-----------------------|------------------------|
-----------------------|------------------------|
-----------------------|------------------------|
-----------------------|------------------------|
                        B#    A                       D      D7
Your tears if you're holding back, or pain if that's what it is


-------------9--7-7~---|----7-7-9-10-9-------7~-|
------7---10-----------|---------------10~-7----|
--7--------------------|------------------------|
-----------------------|------------------------|
-----------------------|------------------------|
-----------------------|------------------------|
           G                               Fm             B
How can I let you know, I'm more than the dress and the voice


----------10-----------|------------------------|
--10-10-8----8-8-------|-------7-7--------------|
-----------------------|---7-9----9-7-7-9-7~----|
-----------------------|------------------------|
-----------------------|------------------------|
-----------------------|------------------------|
       Em                          A                    D --- D7
Just reach me out then, you will know that you're not dreaming


[Chorus 1]

------------9-7-7~-----|-----7-9-10-7-----------|
-----7---10------------|--------------10h-9-10~-|
--7--------------------|------------------------|
-----------------------|------------------------|
-----------------------|------------------------|
-----------------------|------------------------|
               G                           D
Darling, so there you are, with that look on your face


-----------------------|------7-7---------------|
--7-8-10-10-8s-7h-8~---|-8-10-----10s-9h-10~----|
-----------------------|------------------------|
-----------------------|------------------------|
-----------------------|------------------------|
-----------------------|------------------------|
               B#                      D     D7
As if you're never hurt, as if you're never down


-------------9--7-7~---|----7-7-9-10-9-------7~-|
------7---10-----------|---------------10~-7----|
--7--------------------|------------------------|
-----------------------|------------------------|
-----------------------|------------------------|
-----------------------|------------------------|
                G                             Fm        B
Shall I be the one for you, who pinches you softly but sure


----------10-----------|------------------------|
--10-10-8----8-8-------|-------7-7--------------|
-----------------------|---7-9----9-7-7-9-7~----|
-----------------------|------------------------|
-----------------------|------------------------|
-----------------------|------------------------|
     Em                          A                    D
If frown is shown then, I will know that you are no dreamer

[end]


wala ba kayong mga kammmaaayyyyyyyyy? ü

            
            
Suggest correction
Creating personal tab
Creating personal tab
You can edit any tab online and save it as your Personal.

You can edit, replace or remove any tab part or add personal notes – all changes will be seen only by you.

Personal tabs can be accessed anytime from any device, even offline.
Learn more »
comments
print report bad tab
2 comments total.
0 reply
poch 10 Apr 16, 2009 08:31 PM

what is B# O_o

0 reply
Chafmere 10 May 28, 2009 04:21 AM

C I believe

guest
You may want to rate the tab now too:
select rating
Wanna post a correction for this tab? Suggest correction