Oops, an error
Loading. Please wait.

Half-Figured chords

55 views 9 this week
no commentswrite comment
1 2 3 4 5
3 more votes to show rating
add to favorites
×
Save as Personal and add changes to this tab that will be seen only by you. Learn more ›
×
You can save this tab as Personal to edit and correct it or add notes. All changes will be seen only by you. Learn more »
launch autoscroll
font size
0
reset
transpose
0
reset
simplify chords
display chords
guitar tuner
edit
Autoscroll
slow
fast
+/-
esc
set tempo
stop
Strumming
There is no strumming pattern for this song yet. and get +5 IQ
Original played with distortion 

[Intro]
     G5                  B5
e|-----------------------------------------------------|
B|-----------------------------------------------------|
G|-----------------------------------------------------|
G|--------5------------5-------9------------9----------|
A|--------5------------5-------9------------9----------|
E|----3---3---3--3--3--3---7---7---7--7--7--7----------|


      C5                 G5  
e|---------------------------------------------------|
B|---------------------------------------------------|
G|---------------------------------------------------|
D|--------10-----------10------5-----------5---------|
A|--------10-----------10------5-----------5---------|
E|----8---8---8--8--8--8---3---3--3--3--3--3---------|

Intro riff repeats through whole song: 

G5           B5
I ran out of dreams and now
  C5            G5 
I sit inside my room and think
      G5                B5
These tolls weigh on my back
          C5               G5 
I can't relax, I try to sleep

G5 B5   C5                  G5
I-I-I   only half-figured it out
G5 B5   C5                  G5
I-I-I   only half-figured it out

G5          B5
In my room, my soul consumed
C5                     G5
By things that haven't happened yet
G5             B5
Sunlight drips in, night-time slips in
C5                 G5
And I'm still here overthinking
  
G5 B5   C5                   G5
I-I-I   only half-figured it out
G5  B5  C5                 G5
I-I-I'm only gonna let you down

[Solo]
e|----------------------------------------------------------|              
B|----------------------------------------------------------|              
G|------7-----7-----7-----9---------------------------------|  
D|---9-----9-----9-----9------9--7--5--9--9--9--9--7--7--9--|              
A|----------------------------------------------------------|              
E|----------------------------------------------------------|

e|----------------------------------------------------------|              
B|----------------------------------------------------------|              
G|------7-----7-----7-----9---------------------------------|  
D|---9-----9-----9-----9------9--7--5--9--9--9--9--7--7--9--|              
A|----------------------------------------------------------|              
E|----------------------------------------------------------|

            
            
Suggest correction
Creating personal tab
Creating personal tab
You can edit any tab online and save it as your Personal.

You can edit, replace or remove any tab part or add personal notes – all changes will be seen only by you.

Personal tabs can be accessed anytime from any device, even offline.
Learn more »
Give kudos to tab author, rate the tab!
1 2 3 4 5
comments
print report bad tab
guest
You may want to rate the tab now too:
select rating
Wanna post a correction for this tab? Suggest correction