Oops, an error
Loading. Please wait.

Little Uneasy chords

1,450 views 123 this week
2 commentsread comments
1 2 3 4 5
x 4
add to favorites
×
Save as Personal and add changes to this tab that will be seen only by you. Learn more ›
×
You can save this tab as Personal to edit and correct it or add notes. All changes will be seen only by you. Learn more »
launch autoscroll
font size
0
reset
transpose
0
reset
simplify chords
display chords
guitar tuner
edit
Autoscroll
slow
fast
+/-
esc
set tempo
stop
About this tab version
Tablature is provided for the solos. Was this info helpful? Yes No
Strumming
There is no strumming pattern for this song yet. and get +5 IQ
Transcriber: Beefcake4000
Date: 26 May 2017
Notes: This song can be easily adjusted to be playable without a capo; the solo especially does not require
one. The capo is mainly useful for the ability to play the low F while playing Fmaj7 at the 8th position.

Tuning: Standard (E A D G B E)
Capo: 1st Fret
Tempo: 119 bmp
Key: F Major
Time Signature: 4/4

[Chords]
Fmaj7   x8791x
Bbmaj7  x1323x
C5      x355xx
A5      577xxx
Bb5     688xxx

[Intro]
Fmaj7 Fmaj7 Bbmaj7 Bbmaj7 (2x)

[Verse 1]
          Fmaj7        Bbmaj7
We are young, so we untie
          Fmaj7         Bbmaj7
We are young, we get tired
 Fmaj7
Walking on rooftops, feel so heavy
  Bbmaj7                                Fmaj7
I could never leave you if you let me try
                   Bbmaj7
Go on and let me try

[Verse 2]
         Fmaj7            Bbmaj7
Steady now but falling slack,
           Fmaj7           Bbmaj7
Stepping out but falling back
 Fmaj7
Under-passing all your dreaming
   Bbmaj7                             Fmaj7
I'll admit feeling a little uneasy about
                    Bbmaj7
You want to cut me out

[Chorus 1]
                C5
Just one more take
Bbmaj7                Fmaj7
I'm still feeling my way
Bbmaj7            Fmaj7
Still feeling my way
Bbmaj7

[Solo 1]
Bbmaj7  Fmaj7
    E       E  E  E  E  E  E  Q          H           E  E  E  E
e|-------|----------------------------|----------------------------|
B|-------|----------------------------|----------------------------|
G|--10T--|--10-10---------------------|----------------------------|
D|-------|--------10-10-7--7--10T-----|--10----------7h-8p-7h-8p---|
A|-------|----------------------------|----------------------------|
E|-------|----------------------------|----------------------------|

Bbmaj7
    W                            H           Q     E  E
e|----------------------------|----------------------------|
B|----------------------------|----------------------------|
G|----------------------------|-----------------------10T--|
D|--7T------------------------|--7T----------7T----7-------|
A|----------------------------|----------------------------|
E|----------------------------|----------------------------|

Fmaj7
    E  E  E  E  E  E  E  E       H           E  E  E  E
e|----------------------------|----------------------------|
B|----------------------------|----------------------------|
G|--10-10---------------------|----------------------------|
D|--------10-10-7--7--10-10T--|--10----------7h-8h-7h-8h---|
A|----------------------------|----------------------------|
E|----------------------------|----------------------------|

Bbmaj7
    Q     E  E  H                W
e|----------------------------|----------------------------|
B|----------------------------|----------------------------|
G|----------------------------|----------------------------|
D|--7T----7-------------------|----------------------------|
A|----------------------------|----------------------------|
E|-----------10T10T-----------|--10------------------------|

[Verse 3]
          Fmaj7         Bbmaj7
We are caught so we unwind
          Fmaj7           Bbmaj7
We are caught till we untie
  Fmaj7
Talk about leaving here together
 Bbmaj7                               Fmaj7
One more try it'll all get better I doubt
                     Bbmaj7
You want to work it out

[Chorus 2]
               C5
Just one more take
Bbmaj7                Fmaj7
I'm still feeling my way
Bbmaj7            Fmaj7
Still feeling my way
Bbmaj7

[Solo 2]
Fmaj7
          E  E  E Q      E       E  E  E  E  E  E  E  E
e|---------------------------|----------------------------|
B|---------------------------|----------------------------|
G|o------9--9--9/10----------|----------------------------|
D|o---------------------10T--|--10-10-8--8--7--7--8-(1)---|
A|---------------------------|----------------------------|
E|---------------------------|----------------------------|

Bbmaj7
    E  E  E  E  E  E  E  E       E  E  E  E  E  E  E      4x
e|----------------------------|---------------------------|
B|----------------------------|---------------------------|
G|-----2--------2--------2----|--------2--------2--------o|
D|--------3--------3----------|--3--------3--------3-----o|
A|--1--------1--------1-------|-----1--------1------------|
E|----------------------------|---------------------------|
let ring ..........................................|

[Outro]
               C5
Just one more take
Bbmaj7                Fmaj7
I'm still feeling my way
A5    Bb5      A5  Fmaj7
Still feeling my way
A5    Bb5      A5  Fmaj7
Still feeling my way
A5    Bb5      A5  Fmaj7
Still feeling my way
A5    Bb5      A5  F


*******************************************************************************

| T - Tied Note
| h - Hammer-on
| p - Pull-off
| / - Legato Slide Up
| () - Ghost Note
| W - Whole Note (Semibreve)
| H - Half Note (Minim)
| Q - Quarter Note (Crotchet)
| E - Eighth Note (Quaver)
| . - Dotted Note

*******************************************************************************
Suggest correction
Creating personal tab
Creating personal tab
You can edit any tab online and save it as your Personal.

You can edit, replace or remove any tab part or add personal notes – all changes will be seen only by you.

Personal tabs can be accessed anytime from any device, even offline.
Learn more »
comments
print report bad tab
2 comments total.
0 reply
ClaytonLittle 43 Jul 27, 2017 08:59 PM, edited on July 28 2017, 01:02 am

I think the A should be a minor chord. Also, in the first solo, it goes FFCCAACC in the beginning, not FFECAACC. In the second solo, she slides back to the ninth fret after sliding up to the tenth: 9 9 9/10\9.

guest
You may want to rate the tab now too:
select rating
Wanna post a correction for this tab? Suggest correction