Oops, an error
Loading. Please wait.

My Strife Tab

version 1
version 1

Whole song

684 views 1 this week
no commentswrite comment
1 2 3 4 5
please rate
add to favorites
launch autoscroll
font size
0
reset
how to read this tab
guitar tuner
Autoscroll
slow
fast
+/-
esc
set tempo
stop
Help us to improve Ultimate-Guitar.com Take our survey!
×
This is my second tab, this song is in drop d, and its by a band called FC Five from 
if you like bane, comeback kid, have heart, etc. you will like these guys.


first the gang vocals then this


Chorus
e------------------------------------------------5-------------------------|
b------------------------------------------5---5---------------------------|
g----------------------------------------7---7-----------------------------|
d--0-----------0-----------------------------------------------------------|
a--0-let ring--0-let ring--------------------------------------------------|
D--0-----------0-----------------------------------------------------------|


Verse
e---------------5----------------5---5--7777777-5555555-7777777-555-333---|
b----5-7-5----5--5----5-7-5----5---5--------------------------------------|
g--7--------7-------7--------7--------------------------------------------|x2
d-------------------------------------------------------------------------|
a-------------------------------------------------------------------------|
D-------------------------------------------------------------------------|


Basicaly the chorus is just a bunch of strumms on the open d and then that melody leads 
the song

Chorus
Verse
Chorus
verse


then there is a break down to close it


e------------5------------------5--------------------5---------------------|
b--------------7--5---------------7--5-----------------7--5----------------|
g--------------------------------------7-----------------------------------|
d-00000000*----------00000000*------------00000000*---------000000000000*--|
a-00000000*----------00000000*------------00000000*---------000000000000*--|
D-00000000*----------00000000*------------00000000*---------000000000000*--|


e---------------5--------------------5-------------------------------------|
b-----------------7--5-----------------7-5---------------------------------|
g------------------------------------------7-this part 2x then-------------|
d-000000000000*--------000000000000*---------------------------0-----------|
a-000000000000*--------000000000000*---------------------------0-let ring--|
D-000000000000*--------000000000000*---------------------------0-----------|


thats it.

let me know how i did Racecarmikemandara@live.com
Suggest correction
Give kudos to tab author, rate the tab!
1 2 3 4 5
comments
print report bad tab
guest
You may want to rate the tab now too:
select rating
Wanna post a correction for this tab? Suggest correction