Oops, an error
Loading. Please wait.

Hasta La Victoria bass

version 2
version 2

Whole song

12 views 1 this week
no commentswrite comment
1 2 3 4 5
3 more votes to show rating
add to favorites
×
Save as Personal and add changes to this tab that will be seen only by you. Learn more ›
×
You can save this tab as Personal to edit and correct it or add notes. All changes will be seen only by you. Learn more »
launch autoscroll
font size
0
reset
guitar tuner
edit
Autoscroll
slow
fast
+/-
esc
set tempo
stop
Intro guitarra + BAJO:
G/ --------------------------------------------------------------------------------------------/
D/ ----0-0-0-0-0-0-0-0-------------------------------------------0-0-0-0-0--------------/
A/ ------------------------2-2-2-2-2-2-2-------------0-0-0-0-0--------------------------/
E/ ------------------------------------------3-3-3-3-3-------------------------------------/


G/ ----------------------------------------------------------------------------------------------------/
D/ ----0-0-0-0-0-0-0-0--------------------------0-0-0-0-0-0-0-0-0-----------------------------/
A/ ------------------------0-0-0-0-0-0-0-0-0-0--------------------------0-0-0-0-0-0-0-0-0-0-/       x2
E/ --------------------------------------------------------------------------------------------------/
      Dicen que lucho, sin tregua ni rendición. Contra su enemigo, el tirano y el invasor
      Cuba no lo olvida, Bolivia llora por él.   No sabrán ni que existió, los niños del Brasil.

G/ -----------------------------------------------------/-------------------------------------------------------/
D/ ------------------------------------------0-0-0-0--/--------------------------------------------------------/
A/ -----------------------------------0-0-0------------/----------------------------------------0-0-0-0-0-0-/    x1
E/ --0-0-0-0-0-0-0----3-3-3-3-3--------------------/-----0-0-0-0-0-0-0-0---3-3-3-3-3-----------------/
      Defensor del que lucha por sobrevivir.                Guerrillero del que nada tiene que perder

G/ ------------------------0-----------------/-----------------------0------------------------------------/
D/ ---------------------------------------0--/-----------------------------------0------------------------/
A/ -2----------------------------------------/---2--------------------------------------------------------/     x1
E/ ------------------2------------------------/------------------2----------------------------------------/
       Aunque esté muerto, no puede morir. Su pensamiento es el porvenir

G/ -----------------------------------------/----0--------2-----------------------------------------------/
D/ -0---------------------------------------/-----------------------0-------------------------------------/
A/ --------------0-------------2-----------/--------------------------------------------------------------/       x2
E/ ------------------------------------------/-------------------------------------------------------------/
       Morir de pie es como vencer            Justicia, libertad, dignidad

-Otra vez la intro-

G/ -----------------------------------------------------------------------------------/
D/ ----0-0-0-0-0-0-0-0---------------------0-0-0-0-0-0-0-0--------------------/
A/ ------------------------0-0-0-0-0-0-0-------------------------0-0-0-0-0-0-0-/     x2
E/ -----------------------------------------------------------------------------------/
        Frente al egoismo, generosidad.     Frente al capital, humanidad.

-Se repite lo anterior-

SPERO QUE ESTE BTE. BIEN. SALUT I FORÇA AL CANUT!
Si crees que es de otra forma me mandas 1 email, vale?!!!

            
            
Suggest correction
Creating personal tab
Creating personal tab
You can edit any tab online and save it as your Personal.

You can edit, replace or remove any tab part or add personal notes – all changes will be seen only by you.

Personal tabs can be accessed anytime from any device, even offline.
Learn more »
Give kudos to tab author, rate the tab!
1 2 3 4 5
comments
print report bad tab
guest
Wanna post a correction for this tab? Suggest correction