Oops, an error
Loading. Please wait.

Miamis Way Of Life tab

version 1
version 1

Whole song

29 views 1 this week
no commentswrite comment
1 2 3 4 5
3 more votes to show rating
add to favorites
×
Save as Personal and add changes to this tab that will be seen only by you. Learn more ›
×
You can save this tab as Personal to edit and correct it or add notes. All changes will be seen only by you. Learn more »
launch autoscroll
font size
0
reset
how to read this tab
guitar tuner
edit
Autoscroll
slow
fast
+/-
esc
set tempo
stop
wno aqi os dejo esta cancionzaca d fe de ratas, aer si alguien pone
el solo ya!!, visk
ya he sacado el solo espero que este bien. master_arandia

INTRO:

               DO   SOL     LA      FA
e|--------------------------------------
B|--------------------------------------
G|-------------11-9-11-9------------12--
D|----12-11-12-----------11-9--11-12----
A|-12-----------------------------------
E|--------------------------------------


  SOL        LA           FA          SOL
e|-------------------------------------
b|-----------12-10--------8-8-8-8-10-10
G|---------------------9---------------
D|--12-11-12------11-12----------------
A|12-----------------------------------
E|-------------------------------------

SOLO:


  DO              SOL      LA#              FA
e|-----------------------------------------------------
b|-----------------------------------------------------
G|-----------------------------------------------------
D|------------2-3--2----------------3-5-7-8-8-7-5------
A|-8--7-5-3-5--------5-3-5----3-5-6---------------8-8--
E|--------------------------6--------------------------

  FA                  DO          RE#                     LA#
e|-----------------------------------------------------------
b|-----------------------------------------------------------
G|---------5-7-9-10-10-9-7-----------------------------------
D|---5-7-8-----------------10-10--10-10-10-8-8-7-7-----------
A|-8-----------------------------------------------10-10-8-8-
E|-----------------------------------------------------------

DO                 SOL           LA
Enero del 59 triunfa la Revolución,
                    MI
desde la Sierra Maestra
                      SOL                 LA
empezó a salir el sol,es la hora de limpiar
       MI                  FA                  SOL
Cuba de miseria, una bala, una ilusión...


SOL     DO       SOL        LA
Dos únicos destinos alteran la conciencia:
MI            FA         DO              SOL
Ser al fin libres o si no la fosa común.

DO                 SOL           LA
Lo de nacionalizar a más de uno echó pa atrás,
                    MI                            SOL
'No pretendo que mi tierra sea también de los demás'.
                      LA           MI
'Mire usted es lo que hay... ¡Y a doblar la espalda
 FA                     SOL
desde hoy todos igual!'

SOL      DO      SOL        LA        MI
Por un futuro mejor,sin olvidar el pasao,
           FA            DO            SOL
queda un camino de esperanza por recorrer.
          DO        SOL           LA       MI
Y alguno decidió huir,con su fortuna se fue:
          FA            DO          SOL
'Pero si marchas te aseguro no vas a volver'.

(intro)


DO                 SOL                          LA
En el exilio vergonzoso del 'Miami's way of life',
                   MI                      SOL
vive to la gente guapa que era dueña del país.
                  LA      MI            FA            SOL              DO
Pa volver a saquear están esperando¡Esperar mejor sentaos!


SOL      DO          SOL           LA
Y siguen los gusanos creyendo que algún día
MI         FA           DO        SOL
tendrán la isla a su antojo y disposición,
        DO        SOL        LA
pero la vida pasa, el tiempo no perdona,
MI      FA          DO             SOL
y sin embargo o con embargo no tienen opción.

(solo)

          RE        LA          SI
Y siguen los gusanos creyendo que algún día
FA#         SOL           RE        LA
tendrán la isla a su antojo y disposición,
        RE        LA        SI
pero la vida pasa, el tiempo no perdona,
FA#      SOL          RE             LA
y sin embargo o con embargo no tienen opción.

(intro)

wno ya la teneis, suena d pm
La Minda Del Moski

            
            
Suggest correction
Creating personal tab
Creating personal tab
You can edit any tab online and save it as your Personal.

You can edit, replace or remove any tab part or add personal notes – all changes will be seen only by you.

Personal tabs can be accessed anytime from any device, even offline.
Learn more »
Give kudos to tab author, rate the tab!
1 2 3 4 5
comments
print report bad tab
guest
Wanna post a correction for this tab? Suggest correction