Oops, an error
Loading. Please wait.

No Se Puede Permitir tab

version 2
version 2

Whole song

8 views 1 this week
no commentswrite comment
1 2 3 4 5
3 more votes to show rating
add to favorites
×
Save as Personal and add changes to this tab that will be seen only by you. Learn more ›
×
You can save this tab as Personal to edit and correct it or add notes. All changes will be seen only by you. Learn more »
launch autoscroll
font size
0
reset
how to read this tab
guitar tuner
edit
Autoscroll
slow
fast
+/-
esc
set tempo
stop
Aqui está uan de las mejores canciones de Fe de Ratasq ue se ponen un poco bestias con los pobres americanos
pero aun asi tienen parte de razó parte del final(último pentagrama)lo he sacado de una página web.


Supuesta Intro (revisaos el punteo que no me fío)
E|-------------------------------------------|
B|-------------------------------------------|
G|-4-----------4-----------4------------7----|
D|-4-----------4-----------4---------5--7--7-| (varias veces)
A|-2--0-2-0-2--2--0-2-0-2--2-0-2-0-2-5--5--7-|
E|-----------------------------------3-----5-|

Estrofa
B                                   G D A
Paseando trankilamente por la calle
B                   G             A
oigo ruido veo humo algo debe estar pasando
B                                   G D A
yo me acerco despistado intento enterarme
B                         G              A
es k viene de visita ¡un puto presidente yankie!!

Riff extraño
D D# B G A
D D# B G A


D    D     D      D---------------->palm mute extraño
Esta lleno de policias
B    A      B      A
¡habra confrontación!
D    D     D      D
sin mas me meto en el jaleo
B    A     B      A
para hacer presión
D    D     D      D
hay que darle la bienvenida
B    A     B      A
a nuestro redentor
D    D     D      D
busko una piedra por el suelo
B    A     B      A     A  F#  D  E
aumenta la tensión

Estribillo:( o chorus pa' los bilingües)
A            F#            E
No se puede, no se puede , no
D
se puede permitir
A            F#            E
No se puede, no se puede , no
D
se puede permitir


  A           F#           E    D
E|----------------------------0------------|
B|----------------------------0------------|
G|-----------------------------------------|
D|--------------------------2--------------|
A|---------4-5---------4-5--2----5-5-4-5-4-|
E|-5-5-5-5-----2-2-2-2------0--------------|
   palm mute    palm

El solo es algo así me parece pero no os fieis demasiado

E|-----------------------------------------------------------------------------------------|
B|--------14----------12-------------------------------------14----------12----------------|
G|--14----------13----------------------------14-------14----------13----------------------|
D|-----14----14----14----14-16-14-16-14-14-16----14-16----14----14----14----14-16-14-16-14-|
A|-----------------------------------------------------------------------------------------|
E|-----------------------------------------------------------------------------------------|

E|-------------------------------------17-14-----------------------------------------------|
B|------------------------------------------17-14------------------------------------------|
G|------------------14-16-16b16-14---------------16-14-16b-----14-16-16b16-14-----------14-|
D|11-11-9------14-16--------------16-14-------------------14-16--------------16-14-14-16---|
A|-------12-9------------------------------------------------------------------------------|
E|-----------12----------------------------------------------------------------------------|


E|-----------17-14-------------------------------------------------------------------------|
B|-----------------17-14-17-14-------------------------------------------------------------|
G|------14-16------------------16-14-16-14----14-------------------------------------------|
D|14-16------------------------------------16----------------------------------------------|
A|-----------------------------------------------------------------------------------------|
E|-----------------------------------------------5-5-5-5-5-5-5-5-7-7-7-7-7-7-7-7-9-9-9-9-10|

E|-------------------------------------------------------------------------------------|
B|-------------------------------------------------------------------------------------|
G|-------------------------------------------------------------------------------------|
D|-------------------------------------------------------------------------------------|
A|---------12-12-12-12-12-12-12-12-14-14-14-14-14-14-14-14-16-16-16-16-17-16-14-12--14-|
E|-9-7-5-7-----------------------------------------------------------------------------|


   D D# B        G   A
E|--------------------|
B|--------------------|
G|--------------------|
D|-4-2----------------|
A|------5-4-2---------|
E|------------5--3---5|


hay una corde que me he sacado de la manga el D# es algo ansí:
lo saqué de una página web el final porque no me salía ni patrás pero el resto es míiio mi tesoooro
E|------|
B|------|
G|--7---|
D|--7---|
A|--5---|
E|------|

Si teneis alguna duda ahí teneis mi email por si surje algo
Se la dedico a la persona que está cambiando mi vida de arriba a abajo
y a mis amigos de coslada(Alber JAvi Almu Edu Maka Miguel....etc vosotros
sabeis quienes sois)
Paz y Amor!!
Suggest correction
Creating personal tab
Creating personal tab
You can edit any tab online and save it as your Personal.

You can edit, replace or remove any tab part or add personal notes – all changes will be seen only by you.

Personal tabs can be accessed anytime from any device, even offline.
Learn more »
Give kudos to tab author, rate the tab!
1 2 3 4 5
comments
print report bad tab
guest
Wanna post a correction for this tab? Suggest correction