Oops, an error
Loading. Please wait.

Podrida Sociedad tab

version 2
version 2

Whole song

14 views 1 this week
no commentswrite comment
1 2 3 4 5
3 more votes to show rating
add to favorites
×
Save as Personal and add changes to this tab that will be seen only by you. Learn more ›
×
You can save this tab as Personal to edit and correct it or add notes. All changes will be seen only by you. Learn more »
launch autoscroll
font size
0
reset
how to read this tab
guitar tuner
edit
Autoscroll
slow
fast
+/-
esc
set tempo
stop
Venga, ahi va esa tablatura tan facilona. 
Se la dedico a Membri habitual kolaborador de la web.


e/---------------------------------------------------
b/---------------------------------------------------
g/---------------------9-----------------------------
d/---------------------9------------------------------
a/--------------------7-------------------------------
E/---------------------------------------------------


e/---------------------------------------------------
b/---------------------------------------------------
g/---------------------------------------------------
d/-----5--5--5--5--5--5--5--5-------------------------
a/-----5--5--5--5--5--5--5--5------------------------------    
E/----3--3--3--3--3--3--3--3-----------------------------


e/---------------------------------------------------
b/---------------------------------------------------
g/---------------------------------------------------
d/----8--8--8--8--8--8--8---8------------------------------
a/----8--8--8--8--8--8--8--8-------------------------------
E/---6--6--6--6--6--6--6--6--------------------------------

 
e/---------------------------------------------------
b/---------------------------------------------------
g/------7----------5--3--5------------
d/------7------5---5--3--5------------------
a/-----5-------5--3--1--3--------------------
E/------------3---------------------------------------

  e/---------------------------------------------------
b/---------------------------------------------------
g/---------------------------------------------------
d/-----5--5--5--5--5--5--5--5-------------------------
a/-----5--5--5--5--5--5--5--5------------------------------    
E/----3--3--3--3--3--3--3--3-----------------------------


e/---------------------------------------------------
b/---------------------------------------------------
g/---------------------------------------------------
d/----8--8--8--8--8--8--8---8------------------------------
a/----8--8--8--8--8--8--8--8-------------------------------
E/---6--6--6--6--6--6--6--6--------------------------------


e/---------------------------------------------------
b/---------------------------------------------------
g/------5-----7---------7-5-7----------------------------
d/------5-----7---------7-5-7-----------------------------
a/-----3-----5---------5-3-5------------------------------
E/---------------------------------------------------


Y asi repitiendolo todo el rato ke kanta normal.
 
El estribillo es el siguiente:


e/---------------------------------------------------
b/---------------------------------------------------
g/----7--7--7--7----------------5--5--5--5----------------
d/----7--7--7--7--7--7--7--7----5--5--5--5----------------
a/---5--5--5--5---7--7--7--7---3--3--3--3-----------------
E/---------------5--5--5--5------------------------------


e/---------------------------------------------------
b/---------------------------------------------------
g/----------------5--3--5------------
d/------------5-- 5--3--5------------------
a/------------5--3--1--3--------------------
E/------------3---------------------------------------


Y haora lo chungo ke es el solo. 
Bueno el solo es muy parecido lo uniko ke falla 
es la parte del medio.


e/----------66-55----------------------------
b/-----------------88--66-------------88-----
g/--------------------------88--757-----------
d/------------------------------------------- 
a/------------------------------------------
E/--------------------------------------------


e/----------55-4----------------------------------------
b/-----------------7--5--------------------------------
g/--------------------------77--646--66--64---4--66--------
d/------------------------------------------7---------
a/---------------------------------------------------
E/---------------------------------------------------


e/---- 5------55--54-------475475475475475---9-----
b/--575--7-575-------75-------------------------------
g/----------------------764------------------------
d/---------------------------------------------------
a/---------------------------------------------------
E/---------------------------------------------------

e/---8-7--5---------------------------
b/------------9-8--7------------------
g/------------------------------------
d/---------------------------------------
a/-------------------------------------
E/--------------------------------------

Y lo ke keda es repetir todo lo anterior.


Bueno si alguien tiene alguna duda ke escriba a: 

jalexrm@

Y por ultimo felicitar ha esta web ke va de koña pa 
todos los ke kieran aprender a tokar 
la guitarra o no tengan ganas de sakarse una kancion.

A se me olbidaba tengo un grupo de musica 
(por si alguien kiere un conciertillo)
Suggest correction
Creating personal tab
Creating personal tab
You can edit any tab online and save it as your Personal.

You can edit, replace or remove any tab part or add personal notes – all changes will be seen only by you.

Personal tabs can be accessed anytime from any device, even offline.
Learn more »
Give kudos to tab author, rate the tab!
1 2 3 4 5
comments
print report bad tab
guest
Wanna post a correction for this tab? Suggest correction