Oops, an error
Loading. Please wait.

Querida Clara tab

version 2
version 2

Whole song

11 views 1 this week
no commentswrite comment
1 2 3 4 5
3 more votes to show rating
add to favorites
×
Save as Personal and add changes to this tab that will be seen only by you. Learn more ›
×
You can save this tab as Personal to edit and correct it or add notes. All changes will be seen only by you. Learn more »
launch autoscroll
font size
0
reset
how to read this tab
guitar tuner
edit
Autoscroll
slow
fast
+/-
esc
set tempo
stop
NOTA IMPORTANTE:

   1- Para tocar esta canción debe estar afinada la guitarra
      en RE# es decir:
      la sexta cuerda debe sonar RE#, la quinta SOL#, cuarta DO#
      , LA tercera FA#, LA segunda LA#y  LA primera RE#. Aunque
      si la quereis tocar en MI no pasa na.

   2- Estan las dos guitarras, x kuriosidad. La k vale es la
      guitarra1

Na k os guste.


h = hammer on
p = pull off
b = bend
r = release
v = vibrato


Primero se repite dos veces la intro

Intro: (desde 00:00 hasta 00:13)

Guitarra1
e|-------------------------------------------------------------|
B|------------------5-3-----------5-3--------------------------|
G|-----4----------4-----4-------5------5--------7--------------|
D|---5---5---5------------4--------------5----7---7------------|
A|---------5----2-------------3-------------5-------5h7-7------|
E|-3------------------------------------------------------8-7--|

Guitarra2 (Riff1)
e|-----3------------3-------------3----------------------------|
B|---3---3---3----3---3---3-----3---3---3-------3---3h5---3----|
G|-0-------0----0-------0-----0-------0-------0---0-----5---0--|
D|------------------------------------------0------------------|
A|-------------------------------------------------------------|
E|-------------------------------------------------------------|


Tiempo(00:13 hasta 00:20):
Guitarra1
e|-------------------------------------------------------------|
B|------------------5-3-----------5-3--------------------------|
G|-----4----------4-----4-------5------5--------7--------------|
D|---5---5---5------------4--------------5----7---7------------|
A|---------5----2-------------3-------------5-------5h7-7------|
E|-3------------------------------------------------------8-7--|

Guitarra2 (Riff1)
e|-----3------------3-------------3----------------------------|
B|---3---3---3----3---3---3-----3---3---3-------3---3h5---3----|
G|-0-------0----0-------0-----0-------0-------0---0-----5---0--|
D|------------------------------------------0------------------|
A|-------------------------------------------------------------|
E|-------------------------------------------------------------|
     Querida      Clara


Tiempo(00:20 hasta 00:24):

Guitarra1
e|-------------------------------0-----------------------------|
B|-----3------------2--------------0---0-----------------------|
G|-------4---4--------2---2----------0-------------------------|
D|---5-----5------------4------2-------------------------------|
A|----------------4--------------------------------------------|
E|-3------------2------------0---------------------------------|

Guitarra2 (Riff1)
e|-----3------------3-------------3----------------------------|
B|---3---3---3----3---3---3-----3---3---3----------------------|
G|-0-------0----0-------0-----0-------0------------------------|
D|-------------------------------------------------------------|
A|-------------------------------------------------------------|
E|-------------------------------------------------------------|
       Cuando esta carta        llegue          a ti,


Guitarra1 y Guitarra2
e|------0-------2---2--------------|
B|------1-------2---3--------------|
G|------0-------2---4--------------|
D|------2-------4---4--------------|
A|------3-------4---2--------------|
E|--------------2------------------|
        Ya no existiré


Guitarra1:
    SIm                               MI             RE
e|--2------------------------------0--------------2--------------|
B|--3------------------------------0--------------3--------------|
G|--4------------------------------0--------------2--------------|
D|--4------------------------------2--------------0--------------|
A|--2------------------------------2-----------------------------|
E|---------------------------------0-----------------------------|

Guitarra2
e|--------2--------------2---------------0---------------2-------|
B|----------3---3----------3---3-----------0---0-------3---3-----|
G|------4-----4--------4-----4---------0-----0-------2-----------|
D|----4--------------4---------------2-------------0-------------|
A|--2--------------2---------------------------------------------|
E|---------------------------------0-----------------------------|
  Y   aunque      mamá   te explicará  porqué  no estoy,


      RE MI SOL     DO        LAm
debes de saber,       que he vivido


        RE MI SOL  DO        LAm
hasta el   último         instante de mi vida


Estribillo:

SOL                MI              DO             RE
con mucha honra y mucho orgullo, y siempre fiel a mi ideal.

   SOL                MI               DO              RE
No fui un cobarde, no robé a nadie, luché sin tregua hasta el final. Y he

 SIm   DO SIm     SOL    DO SIm   LAm     RE
muerto dando      la      cara         al enemigo.


Ahora se repite la intro y se toca la siguiente estrofa como el
principio. Y el estribillo  es igual:


Estrofa:

Si cien vidas tuviese,
las cien daría por defender a la República.
No creo que el Fascismo consiga  vencer.
Pero si la maldad de los falangistas pudiera más que la razón,


Estribillo:

no ayudes nunca a mis  asesinos,
no hay que tener consideración,
que hoy no la tienen hacia nosotros.
En algún momento
podrás saber de todas
las atrocidades que han cometido.


Punteo
e|-------------------------------------------------------------|
B|----8-10-10b12-10b12-10b12r10--8-8----8p7-7h8p7--------------|
G|--9----------------------------------------------7h9---------|
D|-------------------------------------------------------------|
A|-------------------------------------------------------------|
E|-------------------------------------------------------------|

e|--------------10---------------------------------------------|
B|------8-10b11----11r10--10-8-8-8h10v-------------------------|
G|--7-9--------------------------------------------------------|
D|-------------------------------------------------------------|
A|-------------------------------------------------------------|
E|-------------------------------------------------------------|

e|-10-10-10-10p8---8-8p7---7-7p5----------------7--------------|
B|-----------------------------------10--8--10-----8-----------|
G|-------------------------------------------------------------|
D|-------------------------------------------------------------|
A|-------------------------------------------------------------|
E|-------------------------------------------------------------|


e|--10h12--10---15h17--15--------------------------------------|
B|----------------------------15-15b17-------------------------|
G|-------------------------16----------------------------------|
D|-------------------------------------------------------------|
A|-------------------------------------------------------------|
E|-------------------------------------------------------------|


Final(2:42)


  SOL                      RE          LA             SIm
Solo te pido que cuides a mamá, a tus tíos y a tus abuelos.

   LA                 SOL
Y mira bien por tu hermano, no os

    RE     LA        SIm              LA         SOL
peleéis y trata de ayudarle, y que él te ayude siempre.

                 RE    LA        SIm           LA    SOL
Salud y felicidad, mi último pensamiento será para vosotros


Punteillo Final (03:20) con distorsión
e|-------------------------------------------------------------|
B|-------------------------------------------------------------|
G|------4------2----------4-----4--------------------7---------|
D|----------------2----------------7-----2h4-2-------7---------|
A|----5------4----2-----5------4---7------------5-4--5---------|
E|--3------2------0---3------2-----5---------------------------|


Kualkier duda o corrección puedes mandarme
1 correo a chile007_es@
Suggest correction
Creating personal tab
Creating personal tab
You can edit any tab online and save it as your Personal.

You can edit, replace or remove any tab part or add personal notes – all changes will be seen only by you.

Personal tabs can be accessed anytime from any device, even offline.
Learn more »
Give kudos to tab author, rate the tab!
1 2 3 4 5
comments
print report bad tab
guest
Wanna post a correction for this tab? Suggest correction