Oops, an error
Loading. Please wait.

Shake Your Body tab

568 views 15 this week
no commentswrite comment
1 2 3 4 5
3 more votes to show rating
add to favorites
×
Save as Personal and add changes to this tab that will be seen only by you. Learn more ›
×
You can save this tab as Personal to edit and correct it or add notes. All changes will be seen only by you. Learn more »
launch autoscroll
font size
0
reset
how to read this tab
guitar tuner
edit
Autoscroll
slow
fast
+/-
esc
set tempo
stop
[Intro]

D|----------------------------------------------------------------------|
A|----------------------------------------------------------------------|
F|----------------------------------------------------------------------|
C|------------------------------------5-5-5-5-5-5-5-5--9-9-9-9-9-9-9-9--|
G|--7-7-7-7-7-7-7-7--3-3-3-3-3-3-3-3--3-3-3-3-3-3-3-3--7-7-7-7-7-7-7-7--|
C|--7-7-7-7-7-7-7-7--3-3-3-3-3-3-3-3------------------------------------|

D|-------------------------------------------------------------------|
A|-------------------------------------------------------------------|
F|-------------------------------------------------------------------|
C|------------------------------------5-5-5-5-5-5-5-5--7-7--7--------|
G|--7-7-7-7-7-7-7-7--3-3-3-3-3-3-3-3--3-3-3-3-3-3-3-3--5-5--5-5-5-5--|
C|--7-7-7-7-7-7-7-7--3-3-3-3-3-3-3-3--------------------------5-5-5--|


[Verse 1]

(Let the notes ring)
D|----------------------------------------------|
A|----------------------------------------------|
F|--2--------(ring)-----------0--------------1--|
C|--2--------(ring)-----------0--------------0--|
G|--0--------(ring)--------------------------2--|
C|-------------3--------------------------------|

Note: Mute after each note that isn't a slide

D|-----------------------------------------------------------------------|
A|-----------------------------------------------------------------------|
F|-----------------------------------------------------------------------|
C|--10--9/10-10-10---10--12\10-10-10---10-9-10-12-10---9-10-9------------|
G|------------------------------------------------------------12--10-10--|
C|-----------------------------------------------------------------------|


[Verse 2] 

(Mute briefly after each note)
     PM--------------------------------------------------------|
D|--------------------------------------------------------------------------------------|
A|--------------------------------------------------------------------------------------|
F|--------------------------------------------------------------------------9-----------|
C|--10---10---10-10-9-10---10---10-12-10-9---10---10---10-10-9------9-10-12----12 10-9--|
G|---------------------------------------------------------------10---------------------|
C|--------------------------------------------------------------------------------------|
    
    PM------------------------------------------|
D|--------------------------------------------------------------------------------------|
A|----------------------------------------------------------8---------------------------|
F|--9---9---9-9-7-9---9---9-10-9-7---9---9---9-7--------7-9---10-9-7--------------------|
C|---------------------------------------------------10--------------10-----------------|
G|-------------------------------------------------------------------------7---------7--|
C|-------------------------------------------------------------------------7---------7--|


[Pre-Chorus]

(Pick slide before first pass)
D|--------------------------------------------|
A|--------------------------------------------|
F|--------------------------------------------|
C|--------------------------------------------|
G|--0h10h12----0h10h12----0h12h14----0h15h17--|x2
C|--------------------------------------------|

D|-------------------------------------------------------------------------|
A|-------------------------------------------------------------------------|
F|-------------------------------------------------------------------------|
C|------------------------------------------------------10h12p10-----------|
G|--0h10h12----0h15h17----0h10h12----0h15h17----0h10h12----------12p10h12--|
C|-------------------------------------------------------------------------|


[Chorus]

D|-----------------------------------------------------------------------|
A|-----------------------------------------------------------------------|
F|--------------------------------------------------------------10--12---|
C|------------------------------------5-5-5-5-5-5-5-5--9-9-9-9---x---x---|
G|--7-7-7-7-7-7-7-7--3-3-3-3-3-3-3-3--3-3-3-3-3-3-3-3--7-7-7-7---8--10---|
C|--7-7-7-7-7-7-7-7--3-3-3-3-3-3-3-3-------------------------------------|

D|-------------------------------------------------------------------------------|
A|-------------------------------------------------------------------------------|
F|--14---12/14---14----14-14---12/14/--17/19---14---12/14\12/14---1010--9--10\7--|
C|---x----x--x----x-----x--x----x--x----x--x----x----x--x--x--x---x-x---x---x-x--|
G|--12---10/12---12----12-12---10/12/--15/17---12---10/12\10/12---8-8---7---8\5--|
C|-------------------------------------------------------------------------------|

D|-----------------------------------------------------------------------|
A|-----------------------------------------------------------------------|
F|--------------------------------------------------------------10--12---|
C|------------------------------------5-5-5-5-5-5-5-5--9-9-9-9---x---x---|
G|--7-7-7-7-7-7-7-7--3-3-3-3-3-3-3-3--3-3-3-3-3-3-3-3--7-7-7-7---8--10---|
C|--7-7-7-7-7-7-7-7--3-3-3-3-3-3-3-3-------------------------------------|

D|-------------------------------------------------------------------|
A|-------------------------------------------------------------------|
F|-------------------------------------------------------------------|
C|------------------------------------5-5-5-5-5-5-5-5--7-7--7--------|
G|--7-7-7-7-7-7-7-7--3-3-3-3-3-3-3-3--3-3-3-3-3-3-3-3--5-5--5-5-5-5--|
C|--7-7-7-7-7-7-7-7--3-3-3-3-3-3-3-3--------------------------5-5-5--|


[Bridge]

D|---------------------------|
A|---------------------------|
F|---------------------------|
C|---------------------------|
G|--7--7---5--7-7---7-7-5-7--|
C|--7--7---5--7-7---7-7-5-7--|


[Verse]

    PM------------------------------------------------------------------------------|
D|------------------------------------------------------------------------------------|
A|------------------------------------------------------------------------------------|
F|--------------------9--------------9-10-9-------------------------------------10\9--|x2
C|--7--7----7-10-7-10---10--10----10--------10------------10----10--------------------|x2
G|---------------------------------------------10--10--10----10----10\8--8--8\7-------|x2
C|------------------------------------------------------------------------------------|

Note: Mute tightly after each note

   PM-------------------------------------------------------------------------|
D|-------------------------------------------------------------------------------|
A|-------------------------------------------------------------------------------|
F|-------------------------------------------------------------------------------|
C|-------------------------------------------------------------------------------|
G|--7--7--7---7-7-7---10--10--10---10-10-10---5--5--5---5-5-5---3--3--3---3-3-3--|x2
C|--7--7--7---7-7-7---10--10--10---10-10-10---5--5--5---5-5-5---3--3--3---3-3-3--|x2


[Chorus: Variation]

D|------------------------------------------------------------------------------------------------------|
A|------------------------------------------------------------------------------------------------------|
F|--12-12-12-12-12-12-12-12--12-12-12-12-12-12-12-12--12-12-12-12-12-12-12-12--12-12-12-12-12-12-12-12--|x4
C|--10-10-10-10-10-10-10-10--9--9--9--9--9--9--9--9---10-10-10-10-10-10-10-10--10-10-10-10-10-10-10-10--|x4
G|--8--8--8--8--8--8--8--8---10-10-10-10-10-10-10-10--12-12-12-12-12-12-12-12--10-10-10-10-10-10-10-10--|x4
C|------------------------------------------------------------------------------------------------------|


[Bridge]

Note: Mute after each note, let the last notes rings 

D|----------------------------------------------------------------|
A|----------------------------------------------------------------|
F|--7---7---7/9---9---9---9/10--10--10--10/12----12---12---12/14--|
C|--x---x---x-x---x---x---x-x---x---x---x--x-----x----x----x--x---|
G|--5---5---5/7---7---7---7/8---8---8---8-/10----10---10---10/12--|
C|----------------------------------------------------------------|


[Verse]

D|----------------------|
A|----------------------|
F|----------------------|
C|---------7------------|x3
G|---------7------------|x3
C|---------7------------|x3

D|-------------------------------|
A|-------------------------------|
F|-------------------------------|
C|-------------------------------|
G|---5-7-----5-7----5-7-7-7-5-7--|
C|---5-7-----5-7----5-7-7-7-5-7--|

D|----------------------------------------------------------------------|
A|----------------------------------------------------------------------|
F|----------------------------------------------------------------------|
C|----------------------------------------------------------------------|
G|--3-3-3-3-3-3-3-3--2-2-2-2-5-5-5-5--7-7-7-7-7-7-7-7--5-5-5-5-5-5-5-5--|
C|--3-3-3-3-3-3-3-3--2-2-2-2-5-5-5-5--7-7-7-7-7-7-7-7--5-5-5-5-5-5-5-5--|

D|------------------------------------------------------------------------------|
A|------------------------------------------------------------------------------|
F|------------------------------------------------------------------------------|
C|------------------------------------------------------------------------------|
G|--3-3-3-3-3-3-3-3--2-2-2-2-5-5-5-5--7-7-7-7-7-7-7-7--10-10-10-10-10-10-10-10--|
C|--3-3-3-3-3-3-3-3--2-2-2-2-5-5-5-5--7-7-7-7-7-7-7-7--10-10-10-10-10-10-10-10--|


D|----------------------------------------------------------------------|
A|----------------------------------------------------------------------|
F|----------------------------------------------------------------------|
C|----------------------------------------------------------------------|
G|--3-3-3-3-3-3-3-3--2-2-2-2-5-5-5-5--7-7-7-7-7-7-7-7--5-5-5-5-5-5-5-5--|
C|--3-3-3-3-3-3-3-3--2-2-2-2-5-5-5-5--7-7-7-7-7-7-7-7--5-5-5-5-5-5-5-5--|

D|---------------------------------------|
A|---------------------------------------|
F|---------------------------------------|
C|---------------------------------------|
G|--3-3-3-3-3-3-3-3--2-2-2-2-5-5-5-5--7--|
C|--3-3-3-3-3-3-3-3--2-2-2-2-5-5-5-5--7--|


[Chorus]
 
D|-----------------------------------------------------------------------|
A|-----------------------------------------------------------------------|
F|--------------------------------------------------------------10--12---|
C|------------------------------------5-5-5-5-5-5-5-5--9-9-9-9---x---x---|
G|--7-7-7-7-7-7-7-7--3-3-3-3-3-3-3-3--3-3-3-3-3-3-3-3--7-7-7-7---8--10---|
C|--7-7-7-7-7-7-7-7--3-3-3-3-3-3-3-3-------------------------------------|

D|--------------------------------------------------------------------|
A|--------------------------------------------------------------------|
F|--14---12/14---14----14-14---12/14/--17/19---14---12/14\12/14---12--|
C|---x----x--x----x-----x--x----x--x----x--x----x----x--x--x--x---x---|
G|--12---10/12---12----12-12---10/12/--15/17---12---10/12\10/12---10--|
C|--------------------------------------------------------------------|


[Chorus: Variation]

D|------------------------------------------------------------------------------------------------------|
A|------------------------------------------------------------------------------------------------------|
F|--12-12-12-12-12-12-12-12--12-12-12-12-12-12-12-12--12-12-12-12-12-12-12-12--12-12-12-12-12-12-12-12--|x4
C|--10-10-10-10-10-10-10-10--9--9--9--9--9--9--9--9---10-10-10-10-10-10-10-10--10-10-10-10-10-10-10-10--|x4
G|--8--8--8--8--8--8--8--8---10-10-10-10-10-10-10-10--12-12-12-12-12-12-12-12--10-10-10-10-10-10-10-10--|x4
C|------------------------------------------------------------------------------------------------------|


[Outro]

Note: Mute tightly after each note

D|---------------------------------------------------------------------------|
A|---------------------------------------------------------------------------|
F|--------------------------------------------------------12-10-9---10-9-----|
C|--10---9-10-10---10-10---9-10-10---10-10---9-10-10---10----------------12--|
G|---------------------------------------------------------------------------|
C|---------------------------------------------------------------------------|

D|-------------------------------------------------|
A|-------------------------------------------------|
F|-------------------------------------------------|
C|--10---9-10-10---10-10---9-10-10---10-10---9-10--|
G|-------------------------------------------------|
C|-------------------------------------------------|

D|-----------------------|
A|-----------------------|
F|-----------------------|
C|---------7\------------|
G|---------7\------------|
C|---------7\------------|

************************************
| h   Hammer-on
| p   Pull-off
| /   Slide up
| \   Slide down
| PM  Palm mute
************************************

            
            
Suggest correction
Creating personal tab
Creating personal tab
You can edit any tab online and save it as your Personal.

You can edit, replace or remove any tab part or add personal notes – all changes will be seen only by you.

Personal tabs can be accessed anytime from any device, even offline.
Learn more »
Give kudos to tab author, rate the tab!
1 2 3 4 5
comments
print report bad tab
guest
You may want to rate the tab now too:
select rating
Wanna post a correction for this tab? Suggest correction