Oops, an error
Loading. Please wait.

Lisbon Girls Oh The Lisbon Girls tab

version 1
version 1

Whole song

Interactive

917 views 3 this week
no commentswrite comment
1 2 3 4 5
2 more votes to show rating
add to favorites
×
Save as Personal and add changes to this tab that will be seen only by you. Learn more ›
×
You can save this tab as Personal to edit and correct it or add notes. All changes will be seen only by you. Learn more »
launch autoscroll
font size
0
reset
how to read this tab
guitar tuner
edit
Autoscroll
slow
fast
+/-
esc
set tempo
stop
Author
band: fear before the march of flames
song: the lisbon girls, oh the lisbon girls
album: odd how people shake
tabbed by:gabriel rodriguez


drop d

i tabbed out the notes so the rhythm is your interpretation.
listen to the music and figure out how things go.

intro 

guitar 1
e|--------------------------------------------|
b|--------------------------------------------|
g|-12-12-12---12-12-12---12-12-12---12-12-12--| 
d|-15-15-15---15-15-15---15-15-15---15-15-15--|  x4
a|-0--0--0----0--0--0----0--0--0----0--0--0---|
e|-0--0--0----0--0--0----0--0--0----0--0--0---|

guitar 2 comes in the 3rd time of the above chords, i cant tab it out..


e|------------------------------------------------------------------------------|
b|------------10---------------------------------10-----------------------------|
g|------------13-----------------8-8-------------13------------------8-8/10-10--|  
d|-1-0--3/7------0-0-8-0-----5---7-7---1-0--3/7------0-0-8-0-----5---7-7/9--9---|  x2
a|-1-0--3/7--------------6-0---0-------1-0--3/7--------------6-0---0------------|
e|-1-0--3/7----------------------------1-0--3/7---------------------------------| 



verse  (this is a surrender skin..)
e|-----------------------------|
b|-----------------------------|
g|-----------------------------|
d|--0-0-8-0-----5--------------|  x4
a|----------6-0---0--6-6-6-----|
e|-------------------------0---|
                     PM . . .   

e|----------------------|
b|----------------------|
g|----------------------|
d|-000000---0--00000000-| 
a|-000000---0--00000000-| x2
e|-000000---0--00000000-|

e|-----------------------------|
b|-----------------------------|
g|-----------------------------|
d|--0-0-8-0-----5--------------|  x4
a|----------6-0---0--6-6-6-----|
e|-------------------------0---|
                     PM . . .   

e|-----------------|
b|-----------------|
g|-----------------|
d|-000000-00000000-| 
a|-000000-00000000-| 
e|-000000-00000000-|



chorus

guitar 1   (son comes home...)
e|---------------------------------|
b|---------------------------------|
g|---------------------------------|
d|-000-000-000-000-888-888-888-888-|
a|-000-000-000-000-888-888-888-888-|
e|-000-000-000-000-888-888-888-888-|

e|---------------------------------|
b|---------------------------------|
g|---------------------------------|
d|-333-333-333-333-555-555-555-555-|
a|-333-333-333-333-555-555-555-555-|
e|-333-333-333-333-555-555-555-555-|

e|---------------------------------|
b|---------------------------------|
g|---------------------------------|
d|-000-000-000-000-888-888-888-888-|
a|-000-000-000-000-888-888-888-888-|
e|-000-000-000-000-888-888-888-888-|

e|---------------------------------|
b|---------------------------------|
g|---------------------------------|
d|-333-333-333-333-555-555-777-777-|
a|-333-333-333-333-555-555-777-777-|
e|-333-333-333-333-555-555-777-777-|

guitar 2
e|----------------------------------------------------------|
b|----------------------------------------------------------|
g|-7777-9999-10101010-12121212-9999-10101010-121212-141414--|
d|-xxxx-xxxx-x-x-x-x--x-x-x-x--xxxx-x-x-x-x--x-x-x--x-x-x---|
a|-5555-7777-8-8-8-8--10101010-7777-8-8-8-8--101010-121212--|
e|----------------------------------------------------------|



* - let ring

guitar 1   (father dont you cut...)
e|---------------------------|
b|---------------------------|
g|---------------------------|
d|-1-0*----3/5---1-0*----3/5-| x2
a|-1-0*----3/5---1-0*----3/5-|
e|-1-0*----3/5---1-0*----3/5-|


guitar 2 (played second time of the above)
e|----------------------------------------------------------------------------|
b|----------------------------------------------------------------------------|
g|----------------------------------------------------------------------------|
d|-0-0-17-0-15-0-17-0---0-17-0-15-0-17-0---0-0-17-0-15-0-17-0---0-17-0-15/19~-| x2
a|----------------------------------------------------------------------------|
e|----------------------------------------------------------------------------|



pause



e|------------------------------------------------------------------------------|
b|------------10---------------------------------10-----------------------------|
g|------------13-----------------8-8-------------13------------------8-8/10-10--|  
d|-1-0--3/7------0-0-8-0-----5---7-7---1-0--3/7------0-0-8-0-----5---7-7/9--9---|  x2
a|-1-0--3/7--------------6-0---0-------1-0--3/7--------------6-0---0------------|
e|-1-0--3/7----------------------------1-0--3/7---------------------------------| 

guitar 1
e|--------------------------------------------|
b|--------------------------------------------|
g|-12-12-12---12-12-12---12-12-12---12-12-12--| 
d|-15-15-15---15-15-15---15-15-15---15-15-15--|  x4
a|-0--0--0----0--0--0----0--0--0----0--0--0---|
e|-0--0--0----0--0--0----0--0--0----0--0--0---|

guitar 2 comes in the 3rd time of the above chords, i cant tab it out..


guitar 1
e|---------------------------|
b|---------------------------|
g|---------------------------|
d|-1-0*----3/5---1-0*----3/5-| x2
a|-1-0*----3/5---1-0*----3/5-|
e|-1-0*----3/5---1-0*----3/5-|


guitar 2 (played second time of the above)
e|----------------------------------------------------------------------------|
b|----------------------------------------------------------------------------|
g|----------------------------------------------------------------------------|
d|-0-0-17-0-15-0-17-0---0-17-0-15-0-17-0---0-0-17-0-15-0-17-0---0-17-0-15/19~-| x2
a|----------------------------------------------------------------------------|
e|----------------------------------------------------------------------------|


any comments, email: robotwithawing@yahoo.com

            
            
Suggest correction
Creating personal tab
Creating personal tab
You can edit any tab online and save it as your Personal.

You can edit, replace or remove any tab part or add personal notes – all changes will be seen only by you.

Personal tabs can be accessed anytime from any device, even offline.
Learn more »
Give kudos to tab author, rate the tab!
1 2 3 4 5
comments
print report bad tab
guest
You may want to rate the tab now too:
select rating
Wanna post a correction for this tab? Suggest correction