Oops, an error
Loading. Please wait.

540000 Degrees Farenheit Bass Tab

501 views 1 this week
no commentswrite comment
1 2 3 4 5
2 more votes to show rating
add to favorites
launch autoscroll
font size
0
reset
guitar tuner
Autoscroll
slow
fast
+/-
esc
set tempo
stop
Help us to improve Ultimate-Guitar.com Take our survey!
×
Author
-------------------------------------------------------------------------------
540,000 Degrees Farenheit - Fear Factory
-------------------------------------------------------------------------------


Tuned Low To High-BEAD

Riff A (Intro/Verse)
D:--------------------------------------------------------------------|
A:--------------------------------------------------------------------|
E:3-2-2-3-2-2-32323-2-2-3-2-2-32323-2-2-3-2-2-32323-2-2-3-2-2-3232-5-5|
B:--------------------------------------------------------------------|


Riff B (Main Riff)
D:--------------------------------------------------------------------|
A:--------------------------------------------------------------------|
E:3p2-3p2--3p23p2-3p2-3p2--3p23p2-3p2-3p2--3p23p2-3p2-3p2--3p23p2-5-5-|
B:--------------------------------------------------------------------|

Riff C (Chorus)
D:--2-----2-------|--5-----5-------|----------------|----------------|
A:----------------|----------------|--5-----5-------|--3-----3---2---|
E:0-----0---0---0-|3-----3---3---3-|----------------|--------------3-|
B:----------------|----------------|3-----3---3---3-|1-----1---1-----|

Riff D (Bridge Pt I)
D:-------------------------------------------------------------------|
A:-------------------------------------------------------------------|
E:2222-2222---2-2-2222-2222---2-2-2222-2222---2-2-2222-2222---2-2-2-2|
B:-------------------------------------------------------------------|

Riff E (Bridge Pt II)
D:--------------------------------------------------------|
A:--------------------------------------------------------|
E:3--2--3--5--2222-2222---2-2--3--2--5--3--2222-2222---2-2|
B:--------------------------------------------------------|

D:---------------------------------------|
A:---------------------------------------|
E:3--2--3--5--2222-2222---2-2--3--2--5--3|
B:---------------------------------------|

Riff F (Bridge Pt III)
D:--2~------------|--5~------------|----------------|----------------|
A:----------------|----------------|--5~------------|--3~----3----3--|
E:0~--------------|3~--------------|----------------|----------------|
B:----------------|----------------|3~--------------|1~----1---1-----|


Riff G (Outro)
D:----------------------------------------------------|
A:----------------------------------------------------|
E:3-2-2-3-2-2--3-3--3-2-2-3-2-2--3-3--3-2-2-3-2-2--3-3|
B:----------------------------------------------------|

D:--------------------|
A:--------------------|
E:3-2-2-3-2-2-3232-5-5|
B:--------------------|

END

Song Structure:

Riff A X 2
Riff B X 2
Riff A X 3
Riff B X 1
Riff A X 3
Riff B X 1
Riff C X 2
Riff A X 5
Riff B X 1
Riff C X 2
Riff D X 1
Riff E X 1
Riff D X 1
Riff F X 1
Riff C X 4
Riff A X 2
Riff G X 2
Suggest correction
Give kudos to tab author, rate the tab!
1 2 3 4 5
comments
print report bad tab
guest
You may want to rate the tab now too:
select rating
Wanna post a correction for this tab? Suggest correction