Oops, an error
Loading. Please wait.

Acres Of Skin Bass Tab

version 1
version 1

Whole song

Interactive

358 views 1 this week
1 commentread comment
1 2 3 4 5
1 last vote to show rating
add to favorites
launch autoscroll
font size
0
reset
guitar tuner
Autoscroll
slow
fast
+/-
esc
set tempo
stop
Help us to improve Ultimate-Guitar.com Take our survey!
×
Band:  Fear Factory
Album: Digimortal
Song:  Acres of Skin

Copyright (c) Roadrunner Records (2001)
Version 1.0 - 28/11/04

Transcribed By: Subsonic Assassin

Arranged for a 4-String Bass tuned low to high (BEAD) 

Riff A (Intro)
D:----------------|
A:----------------|
E:----------------|
B:4-3-222---------|

Riff B (Intro Pt 2) 
D:----------------|
A:----------------|
E:----------------|
B:4-3-222-2-2-1-1-|

Riff C (Bass Fill w/drums)
D:----------------|
A:----------------|
E:----------------|
B:111-1-1-1~------|

Riff D (Verse Riff)
D:---------------------------------------------------|
A:---------------------------------------------------|
E:---------------------------------------------------|
B:22--2-2-2-2-2-22--2-2-2-2-2-22--2-2-2-2-2-22--2-22-|

D:-------------------------------------------------------|
A:-------------------------------------------------------|
E:-------------------------------------------------------|
B:2-22--2-2-2-2-2-22--2-2-2-2-2-22--2-2-2-2-2-3-3-3-3-3-3|

Riff E (Bridge)
D:----------------------------------------|
A:----------------------------------------|
E:----------------------------------------|
B:3/5--3/5--3-3-3-3--3/5--3/5--3-3-3-3-3-3|

Riff F (Pre-Chorus)
D:-----------------|  
A:-----------------|  
E:-----------------|  
B:3/5--3/5--3-3-3-3| X 4

D:-----------------|  
A:-----------------|  
E:-----------------|  
B:3/5--5/8--3-3-3-3| X 3

D:---------------------|  
A:---------------------|  
E:---------------------|  
B:3/5--5/8--3-3-3-3-3-3| X 1

Riff G (Chorus)
D:----------------|----------------|
A:----------------|----------------|
E:----------------|----------------|
B:2--3--2--7-6----|2--3--2--7-6-4--|

Riff H (2nd Bridge)
D:---------------------------------------------------|
A:---------------------------------------------------|
E:---------------------------------------------------|
B:11--1-1-1-1-1-11--1-1-1-1-1-11--1-1-1-1-1-11--1-11-|

D:-------------------------------------------------------|
A:-------------------------------------------------------|
E:-------------------------------------------------------|
B:1-11--1-1-1-1-1-11--1-1-1-1-1-11--1-1-1-1-1-1-1-1-1-1-1|

Riff I (w/keyboard & drums)
D:----------------|----------------|----------------|----------------|
A:----------------|----------------|----------------|----------------|
E:3~--------------|4~--------------|6~--------------|----------------|
B:----------------|----------------|----------------|6~------4~------|

D:----------------|----------------|----------------|----------------|
A:----------------|----------------|----------------|8~------6~------|
E:3~------------3-|4~------------4-|6~------------6-|----------------|
B:----------------|----------------|----------------|----------------|

D:5555555555555555|6666666666666666|8888888888888888|----------------|
A:----------------|----------------|----------------|8888888866666666|
E:----------------|----------------|----------------|----------------|
B:----------------|----------------|----------------|----------------|

D:5555555555555555|6666666666666666|----------------|----------------|
A:----------------|----------------|----------------|----------------|
E:----------------|----------------|6666666666666666|----------------|
B:----------------|----------------|----------------|6666666644444444|

Riff J (w/guitar)
D:----------------|----------------|----------------|----------------|
A:----------------|----------------|----------------|----------------|
E:3--33--33-3333--|4--44--44-4444--|6--66--66--6666-|----------------|
B:----------------|----------------|----------------|6--6666--4-4444-|

Riff K (Outro)
D:----------------|----------------|
A:----------------|----------------|
E:----------------|----------------|
B:2--3--2--7-6-6--|2--3--2--7-6-4--| X 3

D:----------------|----------------|
A:----------------|----------------|
E:----------------|----------------|
B:2--3--2--7-6-6--|2--3--2--7-6-4-2| X 1

Song Structure:

Riff A X 4
Riff B X 3
Riff A X 2
Riff B X 3
Riff A X 4
Riff C X 1
Riff D X 2
Riff E X 1
Riff D X 2
Riff F X 1
Riff G X 4
Riff H X 1
Riff D X 2
Riff F X 1
Riff G X 4
Riff I X 1
Riff J X 2
Riff G X 4
Riff K X 1
Suggest correction
Give kudos to tab author, rate the tab!
1 2 3 4 5
comments
print report bad tab
1 comment total.
0 reply
peter.buzasi.7 33 Sep 15, 2014 04:04 PM

It is standarg G tuning in guitar, and maybe the bass follows it. G C F A# D# G C. It's four half steps down. It's the same tuning as Dino uses in Invisible Wounds (Dark Bodies).

guest
You may want to rate the tab now too:
select rating
Wanna post a correction for this tab? Suggest correction