Oops, an error
Loading. Please wait.

Anodized tab

version 1
version 1

Whole song

Interactive

461 views 6 this week
no commentswrite comment
1 2 3 4 5
x 6
add to favorites
×
Save as Personal and add changes to this tab that will be seen only by you. Learn more ›
×
You can save this tab as Personal to edit and correct it or add notes. All changes will be seen only by you. Learn more »
launch autoscroll
font size
0
reset
how to read this tab
guitar tuner
edit
Autoscroll
slow
fast
+/-
esc
set tempo
stop
Author
Difficulty
|--------------------------------------------------------------------------------------------------------|
|                                        FEAR FACTORY - ANODIZED                                         |
|                                         Album: Genexus (2015)                                          |
|                                            Tab by Godspeedy                                            |
|--------------------------------------------------------------------------------------------------------|

                   If you have questions or corrections feel free to send me a message:
                                    https://www.facebook.com/Godspeedy14
                     
                 Also check out my Youtube channel: http://www.youtube.com/user/Godspeedy14

                        *************************************************************
                        * NOTE: If you need a playthrough, check out my cover here: *
                        *       https://www.youtube.com/watch?v=X-xmNElcVXQ         *
                        *************************************************************

                                       Tuning: 8 strings F#BEADGBE
                                                    
*********************************************GUITAR NOTATIONS*********************************************
*                                                                                                        *
*                                      | *   palm mute           |                                       *
*                                      | ~   vibrato             |                                       *
*                                      | П   downstroke          |                                       *
*                                      | V   upstroke            |                                       *
*                                                                                                        *
**********************************************************************************************************

|--------------------------------------------------------------------------------------------------------|
|                                          INTRO (00:00-00:39)                                           |
|--------------------------------------------------------------------------------------------------------|

Guitars 1 and 2 (w/ dist)

          П   П   П V   П V П V  П     П V     П V   П V П V  П     П V
 E|---------|------------------------------|----------------------------|
 B|---------|------------------------------|----------------------------|
 G|---------|------------------------------|----------------------------|
 D|---------|------------------------------|----------------------------|
 A|---------|------------------------------|----------------------------|
 E|---------|------------------------------|----------------------------|
 B|---------|------------------------------|----------------------------|
F#|-------1-|-1---1-1---1-1-1-3--1-----1-1-|---1-1---1-1-1-3--1-----1-1-|
              *   * *   * * * *  *     * *     * *   * * * *  *     * *

      П V   П V П V  П  П  П     П   П   П  П
 E|--------------------------|-----------------|
 B|--------------------------|-----------------|
 G|--------------------------|-----------------|
 D|--------------------------|-----------------|
 A|--------------------------|-----------------|
 E|--------------------------|-----------------|
 B|---------------------5--6-|---5---3---5--6--|
F#|---1-1---1-1-1-3--1--3--4-|---3---1---3--4--|
      * *   * * * *  *  *                *

    П   П V   П V П V  П     П V     П V   П V П V  П     П V ----|
 E|------------------------------|----------------------------|   |
 B|------------------------------|----------------------------|   |
 G|------------------------------|----------------------------|   |
 D|------------------------------|----------------------------|   |
 A|------------------------------|----------------------------|   |
 E|------------------------------|----------------------------|   |
 B|------------------------------|----------------------------|   |
F#|-1---1-1---1-1-1-3--1-----1-1-|---1-1---1-1-1-3--1-----1-1-|   |
    *   * *   * * * *  *     * *     * *   * * * *  *     * *     |
                                                                  | x3  
      П V   П V П V  П     П V     П V    П V П V П V П V П V     |
 E|----------------------------|------------------------------|   |
 B|----------------------------|------------------------------|   |
 G|----------------------------|------------------------------|   |
 D|----------------------------|------------------------------|   |
 A|----------------------------|------------------------------|   |
 E|----------------------------|------------------------------|   |
 B|----------------------------|------------------------------|   |
F#|---1-1---1-1-1-3--1-----1-1-|---1-1----1-1-3-3-1-1-4-4-3-3-|   |
      * *   * * * *  *     * *     * *    * * * * * * * * * * ----|

    П   П V   П V П V  П     П V     П V   П V П V  П     П V
 E|------------------------------|----------------------------|
 B|------------------------------|----------------------------|
 G|------------------------------|----------------------------|
 D|------------------------------|----------------------------|
 A|------------------------------|----------------------------|
 E|------------------------------|----------------------------|
 B|------------------------------|----------------------------|
F#|-1---1-1---1-1-1-3--1-----1-1-|---1-1---1-1-1-3--1-----1-1-|
    *   * *   * * * *  *     * *     * *   * * * *  *     * *  

      П V   П V П V  П  П  П     П    П    П  П  П
 E|--------------------------|----------------------|
 B|--------------------------|----------------------|
 G|--------------------------|----------------------|
 D|--------------------------|----------------------|
 A|--------------------------|----------------------|
 E|--------------------------|----------------------|
 B|---------------------5--6-|---5----3----5--6--5--|
F#|---1-1---1-1-1-3--1--3--4-|---3----1----3--4--3--|
      * *   * * * *  *  *                  *  *  *

|--------------------------------------------------------------------------------------------------------|
|                                          VERSE (00:39-00:52)                                           |
|--------------------------------------------------------------------------------------------------------|

Guitars 1 and 2 (w/ dist)

    П    П V П V П  П  П  П      П V П V П  П  П  П      П V П V П  П  П  П      П V П V П  П  П  
 E|-------------------------|-----------------------|-----------------------|--------------------|
 B|-------------------------|-----------------------|-----------------------|--------------------|
 G|-------------------------|-----------------------|-----------------------|--------------------|
 D|-------------------------|-----------------------|-----------------------|--------------------| x2
 A|-------------------------|-----------------------|-----------------------|--------------------|
 E|-------------------------|-----------------------|-----------------------|--------------------|
 B|-------------------------|-----------------------|-----------------------|------------------6-|
F#|-1----1-1-1-1-3--1--3--1-|----1-1-1-1-3--1--3--1-|----1-1-1-1-3--1--3--1-|----1-1-1-1-3--1--4-|
    *    * * * * *  *  *  *      * * * * *  *  *  *      * * * * *  *  *  *      * * * * *  * 

|--------------------------------------------------------------------------------------------------------|
|                                        PRE-CHORUS (00:52-01:06)                                        |
|--------------------------------------------------------------------------------------------------------|

Guitars 1 and 2 (w/ dist)

    П  П V П V П  П  П  П    П  П V П V П  П  П  П    П  П V П V П  П  П  П    П V П V П   П V П V П
 E|-----------------------|------------------------|------------------------|------------------------|
 B|-----------------------|------------------------|------------------------|------------------------|
 G|-----------------------|------------------------|------------------------|------------------------|
 D|-----------------------|------------------------|------------------------|------------------------|
 A|-----------------------|------------------------|------------------------|------------------------|
 E|-----------------------|------------------------|------------------------|------------------------|
 B|-5-------------------6-|--6-------------------8-|--8-------------------9-|----------9-----------5-|
F#|-3--3-3-3-3-3--3--3--4-|--4--4-4-4-4-4--4--4--6-|--6--6-6-6-6-6--6--6--7-|--7-7-7-7-6---6-6-6-6-3-|
       * * * * *  *  *          * * * * *  *  *          * * * * *  *  *       * * * *     * * * *

    П  П V П V П  П  П  П    П  П V П V П  П  П  П    П  П V П V П  П  П  П    П V П V П   П V П V П 
 E|-----------------------|------------------------|------------------------|------------------------|
 B|-----------------------|------------------------|------------------------|------------------------|
 G|-----------------------|------------------------|------------------------|------------------------|
 D|-----------------------|------------------------|------------------------|------------------------|
 A|-----------------------|------------------------|------------------------|------------------------|
 E|-----------------------|------------------------|------------------------|------------------------|
 B|-5-------------------6-|--6-------------------8-|--8-------------------9-|----------9-----------9-|
F#|-3--3-3-3-3-3--3--3--4-|--4--4-4-4-4-4--4--4--6-|--6--6-6-6-6-6--6--6--7-|--7-7-7-7-6---6-6-6-6-7-|
       * * * * *  *  *          * * * * *  *  *          * * * * *  *  *       * * * *     * * * * 

     П V П V П   П V П V П
 E|------------------------|
 B|------------------------|
 G|------------------------|
 D|------------------------|
 A|------------------------|
 E|------------------------|
 B|----------9-----------4-|
F#|--7-7-7-7-6---6-6-6-6-2-|
     * * * *     * * * *

|--------------------------------------------------------------------------------------------------------|
|                                          CHORUS (01:06-01:34)                                          |
|--------------------------------------------------------------------------------------------------------|

Guitars 1 and 2 (w/ dist)

      П  V   П  V   П      П  V   П  V   П      П  V   П  V   П      П  П  П   П  П  П
 E|--------------------|--------------------|--------------------|----------------------|
 B|--------------------|--------------------|--------------------|----------------------|
 G|--------------------|--------------------|--------------------|----------------------|
 D|------1------1------|--------------------|--------------------|----------------------|
 A|---2------2---------|------6------6------|------6------6------|----------------------|
 E|--------------------|---7------7---------|---7------7---------|----------------------|
 B|-----------------7--|-----------------9--|-----------------7--|---7-----7---7-----4--|
F#|-----------------5--|-----------------7--|-----------------5--|---5--5--4---4--4--2--|
                                                                        *         *

      П  V   П  V   П      П  V   П  V   П      П  V   П  V   П      П V П V П   П V П V П
 E|--------------------|--------------------|--------------------|--------------------------|
 B|--------------------|--------------------|--------------------|--------------------------|
 G|--------------------|--------------------|--------------------|--------------------------|
 D|------1------1------|--------------------|--------------------|--------------------------|
 A|---2------2---------|------6------6------|------6------6------|--------------------------|
 E|--------------------|---7------7---------|---7------7---------|--------------------------|
 B|-----------------7--|-----------------9--|-----------------9--|-----------9-----------4--|
F#|-----------------5--|-----------------7--|-----------------7--|---7-7-7-7-6---6-6-6-6-2--|
                                                                     * * * *     * * * *

      П  V   П  V   П      П  V   П  V   П      П  V   П  V   П      П  П  П   П  П  П
 E|--------------------|--------------------|--------------------|----------------------|
 B|--------------------|--------------------|--------------------|----------------------|
 G|--------------------|--------------------|--------------------|----------------------|
 D|------1------1------|--------------------|--------------------|----------------------|
 A|---2------2---------|------6------6------|------6------6------|----------------------|
 E|--------------------|---7------7---------|---7------7---------|----------------------|
 B|-----------------7--|-----------------9--|-----------------7--|---7-----7---7-----4--|
F#|-----------------5--|-----------------7--|-----------------5--|---5--5--4---4--4--2--|
                                                                        *         *

      П  V   П  V   П      П  V   П  V   П      П  П V П V П V П V П  П      П  П V П V П V П  П  П
 E|--------------------|--------------------|----------------------------|---------------------------|
 B|--------------------|--------------------|----------------------------|---------------------------|
 G|--------------------|--------------------|----------------------------|---------------------------|
 D|------1------1------|--------------------|----------------------------|---------------------------|
 A|---2------2---------|------6------6------|----------------------------|---------------------------|
 E|--------------------|---7------7---------|----------------------------|---------------------------|
 B|-----------------7--|-----------------9--|---9------------------9--9--|---9--------------9--9--9--|
F#|-----------------5--|-----------------7--|---7--7-7-7-7-7-7-7-7-7--6--|---6--6-6-6-6-6-6-7--6--7--|
                                                   * * * * * * * *              * * * * * * *  * 

      П  П V П V П V П V П  П      П  П V П V П V П  П  П
 E|----------------------------|---------------------------|
 B|----------------------------|---------------------------|
 G|----------------------------|---------------------------|
 D|----------------------------|---------------------------|
 A|----------------------------|---------------------------|
 E|----------------------------|---------------------------|
 B|---9------------------9--9--|---9--------------9--9-----|
F#|---7--7-7-7-7-7-7-7-7-7--6--|---6--6-6-6-6-6-6-7--6--1--|
         * * * * * * * *              * * * * * * *  *  *

|--------------------------------------------------------------------------------------------------------|
|                                       POST-CHORUS (01:34-01:47)                                        |
|--------------------------------------------------------------------------------------------------------|

Guitars 1 and 2 (w/ dist)

      П V   П V П V  П     П V     П V   П V П V  П     П V
 E|----------------------------|----------------------------|
 B|----------------------------|----------------------------|
 G|----------------------------|----------------------------|
 D|----------------------------|----------------------------|
 A|----------------------------|----------------------------|
 E|----------------------------|----------------------------|
 B|----------------------------|----------------------------|
F#|---1-1---1-1-1-3--1-----1-1-|---1-1---1-1-1-3--1-----1-1-|
      * *   * * * *  *     * *     * *   * * * *  *     * *

      П V   П V П V  П     П V     П V    П V П V П V П V П V 
 E|----------------------------|------------------------------|
 B|----------------------------|------------------------------|
 G|----------------------------|------------------------------|
 D|----------------------------|------------------------------|
 A|----------------------------|------------------------------|
 E|----------------------------|------------------------------|
 B|----------------------------|------------------------------|
F#|---1-1---1-1-1-3--1-----1-1-|---1-1----1-1-3-3-1-1-4-4-3-3-|
      * *   * * * *  *     * *     * *    * * * * * * * * * *

    П   П V   П V П V  П     П V     П V   П V П V  П     П V
 E|------------------------------|----------------------------|
 B|------------------------------|----------------------------|
 G|------------------------------|----------------------------|
 D|------------------------------|----------------------------|
 A|------------------------------|----------------------------|
 E|------------------------------|----------------------------|
 B|------------------------------|----------------------------|
F#|-1---1-1---1-1-1-3--1-----1-1-|---1-1---1-1-1-3--1-----1-1-|
    *   * *   * * * *  *     * *     * *   * * * *  *     * *  

      П V   П V П V  П  П  П     П    П    П  П  П
 E|--------------------------|----------------------|
 B|--------------------------|----------------------|
 G|--------------------------|----------------------|
 D|--------------------------|----------------------|
 A|--------------------------|----------------------|
 E|--------------------------|----------------------|
 B|---------------------5--6-|---5----3----5--6--5--|
F#|---1-1---1-1-1-3--1--3--4-|---3----1----3--4--3--|
      * *   * * * *  *  *                  *  *  *

|--------------------------------------------------------------------------------------------------------|
|                                         VERSE 2 (01:47-01:59)                                          |
|--------------------------------------------------------------------------------------------------------|
                                              same as VERSE
|--------------------------------------------------------------------------------------------------------|
|                                       PRE-CHORUS 2 (01:59-02:13)                                       |
|--------------------------------------------------------------------------------------------------------|
                                           same as PRE-CHORUS
|--------------------------------------------------------------------------------------------------------|
|                                         CHORUS 2 (02:13-02:48)                                         |
|--------------------------------------------------------------------------------------------------------|

Guitars 1 and 2 (w/ dist)

      П  V   П  V   П      П  V   П  V   П      П  V   П  V   П      П  П  П   П  П  П
 E|--------------------|--------------------|--------------------|----------------------|
 B|--------------------|--------------------|--------------------|----------------------|
 G|--------------------|--------------------|--------------------|----------------------|
 D|------1------1------|--------------------|--------------------|----------------------|
 A|---2------2---------|------6------6------|------6------6------|----------------------|
 E|--------------------|---7------7---------|---7------7---------|----------------------|
 B|-----------------7--|-----------------9--|-----------------7--|---7-----7---7-----4--|
F#|-----------------5--|-----------------7--|-----------------5--|---5--5--4---4--4--2--|
                                                                        *         *

      П  V   П  V   П      П  V   П  V   П      П  V   П  V   П      П V П V П   П V П V П
 E|--------------------|--------------------|--------------------|--------------------------|
 B|--------------------|--------------------|--------------------|--------------------------|
 G|--------------------|--------------------|--------------------|--------------------------|
 D|------1------1------|--------------------|--------------------|--------------------------|
 A|---2------2---------|------6------6------|------6------6------|--------------------------|
 E|--------------------|---7------7---------|---7------7---------|--------------------------|
 B|-----------------7--|-----------------9--|-----------------9--|-----------9-----------4--|
F#|-----------------5--|-----------------7--|-----------------7--|---7-7-7-7-6---6-6-6-6-2--|
                                                                     * * * *     * * * *

      П  V   П  V   П      П  V   П  V   П      П  V   П  V   П      П  П  П   П  П  П
 E|--------------------|--------------------|--------------------|----------------------|
 B|--------------------|--------------------|--------------------|----------------------|
 G|--------------------|--------------------|--------------------|----------------------|
 D|------1------1------|--------------------|--------------------|----------------------|
 A|---2------2---------|------6------6------|------6------6------|----------------------|
 E|--------------------|---7------7---------|---7------7---------|----------------------|
 B|-----------------7--|-----------------9--|-----------------7--|---7-----7---7-----4--|
F#|-----------------5--|-----------------7--|-----------------5--|---5--5--4---4--4--2--|
                                                                        *         *

      П  V   П  V   П      П  V   П  V   П      П  П V П V П V П V П  П      П  П V П V П V П  П  П
 E|--------------------|--------------------|----------------------------|---------------------------|
 B|--------------------|--------------------|----------------------------|---------------------------|
 G|--------------------|--------------------|----------------------------|---------------------------|
 D|------1------1------|--------------------|----------------------------|---------------------------|
 A|---2------2---------|------6------6------|----------------------------|---------------------------|
 E|--------------------|---7------7---------|----------------------------|---------------------------|
 B|-----------------7--|-----------------9--|---9------------------9--9--|---9--------------9--9--9--|
F#|-----------------5--|-----------------7--|---7--7-7-7-7-7-7-7-7-7--6--|---6--6-6-6-6-6-6-7--6--7--|
                                                   * * * * * * * *              * * * * * * *  *  

      П  П V П V П V П V П  П      П  П V П V П V П  П  П
 E|----------------------------|---------------------------|
 B|----------------------------|---------------------------|
 G|----------------------------|---------------------------|
 D|----------------------------|---------------------------| x2
 A|----------------------------|---------------------------|
 E|----------------------------|---------------------------|
 B|---9------------------9--9--|---9--------------9--9--9--|
F#|---7--7-7-7-7-7-7-7-7-7--6--|---6--6-6-6-6-6-6-7--6--7--|
         * * * * * * * *              * * * * * * *  *  *

      П  П V П V П V П V П V П V   П V П V П V П V П  П  П  П
 E|------------------------------|-----------------------------|
 B|------------------------------|-----------------------------|
 G|------------------------------|-----------------------------|
 D|------------------------------|-----------------------------|
 A|------------------------------|-----------------------------|
 E|------------------------------|-----------------------------|
 B|---9--------------------------|-----------------8--9--8-----|
F#|---7--7-7-7-7-7-7-7-7-7-7-7-7-|-7-7-7-7-7-7-7-7-6--7--6--5~~|
         * * * * * * * * * * * *   * * * * * * * * *  *  *

|--------------------------------------------------------------------------------------------------------|
|                                          BRIDGE (02:48-03:21)                                          |
|--------------------------------------------------------------------------------------------------------|

Guitars 1 and 2 (w/ dist)

     П  П V П V П  П   П    П  П V П V П  П   П    П  П V П V П  П   П    П  П V П V П V П V П V П V 
 E|----------------------|----------------------|----------------------|-----------------------------|
 B|----------------------|----------------------|----------------------|-----------------------------|
 G|----------------------|----------------------|----------------------|-----------------------------|
 D|----------------------|----------------------|----------------------|-----------------------------|
 A|----------------------|----------------------|----------------------|-----------------------------|
 E|----------------------|----------------------|----------------------|-----------------------------|
 B|----------------------|----------------------|----------------------|-----------------------------|
F#|~~4--4-4-4-4-5--4---5~|~~4--4-4-4-4-5--4---5~|~~4--4-4-4-4-5--4---5~|~~4--4-4-4-4-4-4-4-4-4-4-4-4-|
     *  * * * *             *  * * * *             *  * * * *             *  * * * * * * * * * * * *

    П   П V П V П  П   П    П  П V П V П  П   П    П  П V П V П  П   П    П  П V П V П V П V П V П V 
 E|----------------------|----------------------|----------------------|-----------------------------|
 B|----------------------|----------------------|----------------------|-----------------------------|
 G|----------------------|----------------------|----------------------|-----------------------------|
 D|----------------------|----------------------|----------------------|-----------------------------|
 A|----------------------|----------------------|----------------------|-----------------------------|
 E|----------------------|----------------------|----------------------|-----------------------------|
 B|----------------------|----------------------|----------------------|-----------------------------|
F#|-5~~~4-4-4-4-5--4---5~|~~4--4-4-4-4-5--4---5~|~~4--4-4-4-4-5--4---5~|~~4--4-4-4-4-4-4-4-4-4-4-4-4-|
        * * * *             *  * * * *             *  * * * *             *  * * * * * * * * * * * *

    П   П V П V П  П   П    П  П V П V П  П   П    П  П V П V П  П   П    П  П V П V П V П V П V П V 
 E|----------------------|----------------------|----------------------|-----------------------------|
 B|----------------------|----------------------|----------------------|-----------------------------|
 G|----------------------|----------------------|----------------------|-----------------------------|
 D|----------------------|----------------------|----------------------|-----------------------------|
 A|----------------------|----------------------|----------------------|-----------------------------|
 E|----------------------|----------------------|----------------------|-----------------------------|
 B|-7-----------7--6---7-|-------------7--6---7-|-------------7--6---7-|-----------------------------|
F#|-5---4-4-4-4-5--4---5-|--4--4-4-4-4-5--4---5-|--4--4-4-4-4-5--4---5-|--4--4-4-4-4-4-4-4-4-4-4-4-4-|
        * * * *             *  * * * *             *  * * * *             *  * * * * * * * * * * * *

    П   П V П V П  П   П    П  П V П V П  П   П    П  П V П V П  П   П    П  П V П V П V П V П V П
 E|----------------------|----------------------|----------------------|-----------------------------|
 B|----------------------|----------------------|----------------------|-----------------------------|
 G|----------------------|----------------------|----------------------|-----------------------------|
 D|----------------------|----------------------|----------------------|-----------------------------|
 A|----------------------|----------------------|----------------------|-----------------------------|
 E|----------------------|----------------------|----------------------|-----------------------------|
 B|-7-----------7--6---7-|-------------7--6---7-|-------------7--6---7-|-------------------------6---|
F#|-5---4-4-4-4-5--4---5-|--4--4-4-4-4-5--4---5-|--4--4-4-4-4-5--4---5-|--4--4-4-4-4-4-4-4-4-4-4-4---|
        * * * *             *  * * * *             *  * * * *             *  * * * * * * * * * *

      П  П V П V П  П    П      П  П V П V П  П    П      П  П V П V П  П    П
 E|-------------------------|-------------------------|-------------------------|
 B|-------------------------|-------------------------|-------------------------|
 G|-------------------------|-------------------------|-------------------------|
 D|-------------------------|-------------------------|-------------------------|
 A|-------------------------|-------------------------|-------------------------|
 E|-------------------------|-------------------------|-------------------------|
 B|----------------------6--|----------------------6--|----------------------6--|
F#|---4--4-4-4-4-5--4----4--|---4--4-4-4-4-5--4----4--|---4--4-4-4-4-5--4----4--|
      *  * * * *                *  * * * *                *  * * * *

       П  П  П  П  П  П  П    П V П V П V П V П V П V П V П
 E|-------------------------|--------------------------------|
 B|-------------------------|--------------------------------|
 G|-------------------------|--------------------------------|
 D|-------------------------|--------------------------------|
 A|-------------------------|--------------------------------|
 E|-------------------------|--------------------------------|
 B|-------------------------|-----------------------------4--|
F#|----4--4--4--4--4--4--4--|-4-4-4-4-4-4-4-4-4-4-4-4-4-4-2--|
       *  *  *  *  *  *  *    * * * * * * * * * * * * * *

|--------------------------------------------------------------------------------------------------------|
|                                         CHORUS 3 (03:21-04:20)                                         |
|--------------------------------------------------------------------------------------------------------|

Guitars 1 and 2 (w/ dist)

      П  V   П  V   П      П  V   П  V   П      П  V   П  V   П      П  П  П   П  П  П ---------|
 E|--------------------|--------------------|--------------------|----------------------|       |
 B|--------------------|--------------------|--------------------|----------------------|       |
 G|--------------------|--------------------|--------------------|----------------------|       |
 D|------1------1------|--------------------|--------------------|----------------------|       |
 A|---2------2---------|------6------6------|------6------6------|----------------------|       |
 E|--------------------|---7------7---------|---7------7---------|----------------------|       |
 B|-----------------7--|-----------------9--|-----------------7--|---7-----7---7-----4--|       |
F#|-----------------5--|-----------------7--|-----------------5--|---5--5--4---4--4--2--|       |
                                                                        *         *             |
                                                                                                | x3
      П  V   П  V   П      П  V   П  V   П      П  V   П  V   П      П V П V П   П V П V П      |
 E|--------------------|--------------------|--------------------|--------------------------|   |
 B|--------------------|--------------------|--------------------|--------------------------|   |
 G|--------------------|--------------------|--------------------|--------------------------|   |
 D|------1------1------|--------------------|--------------------|--------------------------|   |
 A|---2------2---------|------6------6------|------6------6------|--------------------------|   |
 E|--------------------|---7------7---------|---7------7---------|--------------------------|   |
 B|-----------------7--|-----------------9--|-----------------9--|-----------9-----------4--|   |
F#|-----------------5--|-----------------7--|-----------------7--|---7-7-7-7-6---6-6-6-6-2--|   |
                                                                     * * * *     * * * *  ------|

      П  V   П  V   П      П  V   П  V   П      П  V   П  V   П      П  П  П   П  П  П
 E|--------------------|--------------------|--------------------|----------------------|
 B|--------------------|--------------------|--------------------|----------------------|
 G|--------------------|--------------------|--------------------|----------------------|
 D|------1------1------|--------------------|--------------------|----------------------|
 A|---2------2---------|------6------6------|------6------6------|----------------------|
 E|--------------------|---7------7---------|---7------7---------|----------------------|
 B|-----------------7--|-----------------9--|-----------------7--|---7-----7---7-----4--|
F#|-----------------5--|-----------------7--|-----------------5--|---5--5--4---4--4--2--|
                                                                        *         *

      П  V   П  V   П      П  V   П  V   П      П  П V П V П V П V П  П      П  П V П V П V П  П  П
 E|--------------------|--------------------|----------------------------|---------------------------|
 B|--------------------|--------------------|----------------------------|---------------------------|
 G|--------------------|--------------------|----------------------------|---------------------------|
 D|------1------1------|--------------------|----------------------------|---------------------------|
 A|---2------2---------|------6------6------|----------------------------|---------------------------|
 E|--------------------|---7------7---------|----------------------------|---------------------------|
 B|-----------------7--|-----------------9--|---9------------------9--9--|---9--------------9--9--9--|
F#|-----------------5--|-----------------7--|---7--7-7-7-7-7-7-7-7-7--6--|---6--6-6-6-6-6-6-7--6--7--|
                                                   * * * * * * * *              * * * * * * *  *  

      П  П V П V П V П V П  П      П  П V П V П V П  П  П
 E|----------------------------|---------------------------|
 B|----------------------------|---------------------------|
 G|----------------------------|---------------------------|
 D|----------------------------|---------------------------| x2
 A|----------------------------|---------------------------|
 E|----------------------------|---------------------------|
 B|---9------------------9--9--|---9--------------9--9--9--|
F#|---7--7-7-7-7-7-7-7-7-7--6--|---6--6-6-6-6-6-6-7--6--7--|
         * * * * * * * *              * * * * * * *  *  *

      П  П V П V П V П V П V П V   П V П V П V П V П  П  П  П
 E|------------------------------|-----------------------------|
 B|------------------------------|-----------------------------|
 G|------------------------------|-----------------------------|
 D|------------------------------|-----------------------------|
 A|------------------------------|-----------------------------|
 E|------------------------------|-----------------------------|
 B|---9--------------------------|-----------------8--9--8-----|
F#|---7--7-7-7-7-7-7-7-7-7-7-7-7-|-7-7-7-7-7-7-7-7-6--7--6--1--|
         * * * * * * * * * * * *   * * * * * * * * *  *  *

|--------------------------------------------------------------------------------------------------------|
|                                          OUTRO (04:20-04:47)                                           |
|--------------------------------------------------------------------------------------------------------|

Guitars 1 and 2 (w/ dist)

    П   П V   П V П V  П     П V     П V   П V П V  П     П V ----|
 E|------------------------------|----------------------------|   |
 B|------------------------------|----------------------------|   |
 G|------------------------------|----------------------------|   |
 D|------------------------------|----------------------------|   |
 A|------------------------------|----------------------------|   |
 E|------------------------------|----------------------------|   |
 B|------------------------------|----------------------------|   |
F#|-1---1-1---1-1-1-3--1-----1-1-|---1-1---1-1-1-3--1-----1-1-|   |
    *   * *   * * * *  *     * *     * *   * * * *  *     * *     |
                                                                  | x3  
      П V   П V П V  П     П V     П V    П V П V П V П V П V     |
 E|----------------------------|------------------------------|   |
 B|----------------------------|------------------------------|   |
 G|----------------------------|------------------------------|   |
 D|----------------------------|------------------------------|   |
 A|----------------------------|------------------------------|   |
 E|----------------------------|------------------------------|   |
 B|----------------------------|------------------------------|   |
F#|---1-1---1-1-1-3--1-----1-1-|---1-1----1-1-3-3-1-1-4-4-3-3-|   |
      * *   * * * *  *     * *     * *    * * * * * * * * * * ----|

    П   П V   П V П V  П     П V     П V   П V П V  П     П V
 E|------------------------------|----------------------------|
 B|------------------------------|----------------------------|
 G|------------------------------|----------------------------|
 D|------------------------------|----------------------------|
 A|------------------------------|----------------------------|
 E|------------------------------|----------------------------|
 B|------------------------------|----------------------------|
F#|-1---1-1---1-1-1-3--1-----1-1-|---1-1---1-1-1-3--1-----1-1-|
    *   * *   * * * *  *     * *     * *   * * * *  *     * *  

      П V   П V П V  П  П  П     П    П    П  П  П
 E|--------------------------|----------------------|
 B|--------------------------|----------------------|
 G|--------------------------|----------------------|
 D|--------------------------|----------------------|
 A|--------------------------|----------------------|
 E|--------------------------|----------------------|
 B|---------------------5--6-|---5----3----5--6--5--|
F#|---1-1---1-1-1-3--1--3--4-|---3----1----3--4--3--|
      * *   * * * *  *  *                  *  *  *



            
            
Suggest correction
Creating personal tab
Creating personal tab
You can edit any tab online and save it as your Personal.

You can edit, replace or remove any tab part or add personal notes – all changes will be seen only by you.

Personal tabs can be accessed anytime from any device, even offline.
Learn more »
comments
print report bad tab
guest
You may want to rate the tab now too:
select rating
Wanna post a correction for this tab? Suggest correction