Oops, an error
Loading. Please wait.

Archetype Tab

version 1
version 1

Album

Whole song

Interactive

3,088 views 1 this week
1 commentread comment
1 2 3 4 5
1 last vote to show rating
add to favorites
launch autoscroll
font size
0
reset
how to read this tab
guitar tuner
Autoscroll
slow
fast
+/-
esc
set tempo
stop
Help us to improve Ultimate-Guitar.com Take our survey!
×
Author
   ARCHETYPE ALBUM

track list

1. Slave Labor - rx aka. iskim86

2. Cyberwaste - Unregistered

3. Act of God - rattlehead666

4. Drones - Thommoboy

5. Archetype - Thommoboy

6. Corporate Cloning - M. Trenke

7. Bite the Hand That Bleeds - dean paul

8. Undercurrent - Thommoboy

9. Default Judgement - Unregistered

10. Bonescraper - dean paul

11. Human Shields - samsara

12. Ascension * - Not Tabbed Yet Will Get To It

13. School - martin colclough

* Instrumental

 -----------------
|About The Album:|
 -----------------
Archetype is the fifth studio album by Los Angeles industrial metal band Fear Factory.
It was released on April 19, 2004 through Liquid 8.
This album is not a concept album like the previous three studio albums.
The music on this album returns to the style of the Demanufacture era which pleased many fans.
Archetype was also issued in a Limited Edition Digipak with a bonus DVD.
Depending on where the digipak was obtained, the bonus DVD is either for their
"Australian Tour 2004"
and the video for "Cyberwaste" or one based around The Making of Archetype.
Some, though not all, versions of the bonus digipak also included a gold ticket 
that gave the owner
a chance to meet Fear Factory live.


 -------
|Credits|
 -------
Burton C. Bell ??? vocals
Christian Olde Wolbers ??? electric, bass
Byron Stroud ??? bass (though he is credited on this album as bassist, Christian
Olde Wolbers did both
guitars and bass in the studio)
Raymond Herrera ??? drums
John Bechdel ??? keyboards
Jeremy Blair ??? engineer, augmenting
Mike Catain ??? executive producer, coordination
Omer "Impson" R. Cordell ??? photography
Fear Factory ??? producer, development, visual concept
Alain Francois ??? web design
Rhys Fulber ??? keyboards, programming, devices
Torsten Gebhardt ??? rendering
Roger Lian ??? augmenting
Ken "Hi Watt" Marshall ??? engineer, augmenting
Greg Reely ??? mixing, augmenting
Ralph Schrader ??? coordination, layout design, organizer
Shaun Thingvold ??? augmenting
Steve Tushar ??? augmenting
Howie Weinberg ??? mastering, development

Enjoy And Rock This Monster


SLAVE LABOR
As recorded by Fear Factory
(From the 2004 Album ARCHETYPE)

Transcribed by rx aka. iskim86


Words and Music by Fear Factory
Arranged by Fear Factory

Gtr I (B E A D G B E) - 'Guitar'
Gtr II (B E A D G B E) - 'Guitar'
Gtr III (B E A D G B E) - 'Heavy Effect'
Gtr IV (B E A D G B E) - 'Heavy Effect'
Gtr V (B E A D G B E) - 'Synthesizer'

   Intro
    Q=190
    N.C.
   4/4
    Gtrs I, II, III, IV
    PM-----------------------------------------------
    E S S E E S S E E S S   E E S S E S S E S S E  3x
||------------------------|------------------------||
||------------------------|------------------------||
||o-----------------------|-----------------------o||
||------------------------|------------------------||
||o-----------------------|-----------------------o||
||------------------------|------------------------||
||--4-3-3-3-3-3-3-3-4-3-3-|-3-4-3-3-3-3-3-3-3-3-3--||


 ---------------------------------------|
  E S S E E S S E E S S   E E S S E S S E Q
|-----------------------|---------------------|
|-----------------------|---------------------|
|-----------------------|---------------------|
|-----------------------|---------------------|
|-----------------------|---------------------|
|-----------------------|---------------------|
|-4-3-3-3-3-3-3-3-4-3-3-|-3-4-3-3-3-3-3-3-----|


    PM-----------------------------------------------
    E S S E E S S E E S S   E E S S E S S E S S E  3x
||------------------------|------------------------||
||------------------------|------------------------||
||o-----------------------|-----------------------o||
||------------------------|------------------------||
||o-----------------------|-----------------------o||
||------------------------|------------------------||
||--4-3-3-3-3-3-3-3-4-3-3-|-3-4-3-3-3-3-3-3-3-3-3--||


 -------------------------------------------------|
  E S S E E S S E E S S   E E S S E S S S S S S S S
|-----------------------|---------------------------|
|-----------------------|---------------------------|
|-----------------------|---------------------------|
|-----------------------|---------------------------|
|-----------------------|---------------------------|
|-----------------------|---------------------------|
|-4-3-3-3-3-3-3-3-4-3-3-|-3-4-3-3-3-4-4-4-4-4-4-4-4-|


    PM-----------------------------------------------
    E S S E E S S E E S S   E E S S E S S E S S E  3x
||------------------------|------------------------||
||------------------------|------------------------||
||o-----------------------|-----------------------o||
||------------------------|------------------------||
||o-----------------------|-----------------------o||
||------------------------|------------------------||
||--4-3-3-3-3-3-3-3-4-3-3-|-3-4-3-3-3-3-3-3-3-3-3--||


 -------------------------------------------------|
  E S S E E S S E E S S   E E S S E S S S S S S S S
|-----------------------|---------------------------|
|-----------------------|---------------------------|
|-----------------------|---------------------------|
|-----------------------|---------------------------|
|-----------------------|---------------------------|
|-----------------------|---------------------------|
|-4-3-3-3-3-3-3-3-4-3-3-|-3-4-3-3-3-4-4-4-4-4-4-4-4-|


 Pre-Verse
  PM------------------------------------|
  E S S E E S S E E S S   E E S S E S S E Q
|-----------------------|--------------------|
|-----------------------|--------------------|
|-----------------------|--------------------|
|-----------------------|--------------------|
|-----------------------|--------------------|
|-----------------------|--------------------|
|-4-3-3-3-3-3-3-3-4-3-3-|-3-4-3-3-3-3-3-3----|


  PM------------------------------------------|
  E S S E E S S E E S S   E E S S E S S E S S E
|-----------------------|-----------------------|
|-----------------------|-----------------------|
|-----------------------|-----------------------|
|-----------------------|-----------------------|
|-----------------------|-----------------------|
|-----------------------|-----------------------|
|-4-3-3-3-3-3-3-3-4-3-3-|-3-4-3-3-3-3-3-3-3-3-3-|


   Verse
    PM------------|      PM------------|
    E S S E E S S E Q    E S S E E S S E Q
||---------------------|--------------------|
||---------------------|--------------------|
||o--------------------|--------------------|
||---------------------|--------------------|
||o--------------------|--------------------|
||---------------------|--------------------|
||--4-3-3-3-3-3-3-3----|-4-3-3-3-3-3-3-3----|


  PM------------|      PM------------------|
  E S S E E S S E Q    E S S E E S S E S S E   4x
|--------------------|-------------------------||
|--------------------|-------------------------||
|--------------------|------------------------o||
|--------------------|-------------------------||
|--------------------|------------------------o||
|--------------------|-------------------------||
|-4-3-3-3-3-3-3-3----|-4-3-3-3-3-6-6-6-6-6-6---||


 Pre-Chorus
  F5                F5                Eb5               Eb5
                                                        PM------------|
  E E E E E E E E   E E E E E E E E   E E E E E E E E   E E E E E E E E
|-----------------|-----------------|-----------------|------------------|
|-----------------|-----------------|-----------------|------------------|
|-----------------|-----------------|-----------------|------------------|
|-----------------|-----------------|-----------------|------------------|
|-8-8-8-8-8-8-8-8-|-8-8-8-8-8-8-8-8-|-6-6-6-6-6-6-6-6-|-6-6-6-6-6-6-6-6--|
|-8-8-8-8-8-8-8-8-|-8-8-8-8-8-8-8-8-|-6-6-6-6-6-6-6-6-|-6-6-6-6-6-6-6-6--|
|-6-6-6-6-6-6-6-6-|-6-6-6-6-6-6-6-6-|-4-4-4-4-4-4-4-4-|-4-4-4-4-4-4-4-4--|


   Chorus
    D5                                D5
    S S S S S S S S S S S S S S S S   S S S S S S S S S S S S S S S S
||----------------------------------|---------------------------------|
||----------------------------------|---------------------------------|
||o---------------------------------|---------------------------------|
||----------------------------------|---------------------------------|
||o---------------------------------|---------------------------------|
||--5-5-5-5-5-5-5-5-5-5-5-5-5-5-5-5-|-5-5-5-5-5-5-5-5-5-5-5-5-5-5-5-5-|
||--3-3-3-3-3-3-3-3-3-3-3-3-3-3-3-3-|-3-3-3-3-3-3-3-3-3-3-3-3-3-3-3-3-|


  C5                                Eb5
                                                    PM------|
  S S S S S S S S S S S S S S S S   S S S S S S S S E S S E E
|---------------------------------|---------------------------|
|---------------------------------|---------------------------|
|---------------------------------|---------------------------|
|---------------------------------|---------------------------|
|---------------------------------|---------------------------|
|-3-3-3-3-3-3-3-3-3-3-3-3-3-3-3-3-|-6-6-6-6-6-6-6-6-6-6-6-6-6-|
|-1-1-1-1-1-1-1-1-1-1-1-1-1-1-1-1-|-4-4-4-4-4-4-4-4-4-4-4-4-4-|


  D5                                D5
  S S S S S S S S S S S S S S S S   S S S S S S S S S S S S S S S S
|---------------------------------|---------------------------------|
|---------------------------------|---------------------------------|
|---------------------------------|---------------------------------|
|---------------------------------|---------------------------------|
|---------------------------------|---------------------------------|
|-5-5-5-5-5-5-5-5-5-5-5-5-5-5-5-5-|-5-5-5-5-5-5-5-5-5-5-5-5-5-5-5-5-|
|-3-3-3-3-3-3-3-3-3-3-3-3-3-3-3-3-|-3-3-3-3-3-3-3-3-3-3-3-3-3-3-3-3-|


  F5                                Eb5
                                                    PM------|
  S S S S S S S S S S S S S S S S   S S S S S S S S E S S E E
|---------------------------------|----------------------------||
|---------------------------------|----------------------------||
|---------------------------------|---------------------------o||
|---------------------------------|----------------------------||
|---------------------------------|---------------------------o||
|-8-8-8-8-8-8-8-8-8-8-8-8-8-8-8-8-|-6-6-6-6-6-6-6-6-6-6-6-6-6--||
|-6-6-6-6-6-6-6-6-6-6-6-6-6-6-6-6-|-4-4-4-4-4-4-4-4-4-4-4-4-4--||


   Pre-Verse
    EbD5
    PM-----------------------------------------------
    E S S E E S S E E S S   E E S S E S S E S S E  3x
||------------------------|------------------------||
||------------------------|------------------------||
||o-----------------------|-----------------------o||
||------------------------|------------------------||
||o-----------------------|-----------------------o||
||--6-5-5-5-5-5-5-5-5-5-5-|-5-5-5-5-5-5-5-5-5-5-5--||
||--4-3-3-3-3-3-3-3-3-3-3-|-3-3-3-3-3-3-3-3-3-3-3--||


  EbD5                              Eb5
 -------------------------------------------------|
  E S S E E S S E E S S   E E S S E S S S S S S S S
|-----------------------|---------------------------|
|-----------------------|---------------------------|
|-----------------------|---------------------------|
|-----------------------|---------------------------|
|-----------------------|---------------------------|
|-6-5-5-5-5-5-5-5-5-5-5-|-5-5-5-5-5-6-6-6-6-6-6-6-6-|
|-4-3-3-3-3-3-3-3-3-3-3-|-3-3-3-3-3-4-4-4-4-4-4-4-4-|


    PM-----------------------------------------------
    E S S E E S S E E S S   E E S S E S S E S S E  3x
||------------------------|------------------------||
||------------------------|------------------------||
||o-----------------------|-----------------------o||
||------------------------|------------------------||
||o-----------------------|-----------------------o||
||--6-5-5-5-5-5-5-5-5-5-5-|-5-5-5-5-5-5-5-5-5-5-5--||
||--4-3-3-3-3-3-3-3-3-3-3-|-3-3-3-3-3-3-3-3-3-3-3--||


 -------------------------------------------------|
  E S S E E S S E E S S   E E S S E S S S S S S S S
|-----------------------|---------------------------|
|-----------------------|---------------------------|
|-----------------------|---------------------------|
|-----------------------|---------------------------|
|-----------------------|---------------------------|
|-6-5-5-5-5-5-5-5-5-5-5-|-5-5-5-5-5-6-6-6-6-6-6-6-6-|
|-4-3-3-3-3-3-3-3-3-3-3-|-3-3-3-3-3-4-4-4-4-4-4-4-4-|


   Verse
    N.C.
    PM------------|                            PM------------------|
    E S S E E S S E Q    W          W          E S S E E S S E S S E
||---------------------|----------|----------|------------------------||
||---------------------|----------|----------|------------------------||
||o--------------------|----------|----------|-----------------------o||
||---------------------|----------|----------|------------------------||
||o--------------------|----------|----------|-----------------------o||
||---------------------|----------|----------|------------------------||
||--4-3-3-3-3-3-3-3----|----------|----------|-4-3-3-3-3-6-6-6-6-6-6--||


    PM------------|      PM------------|
    E S S E E S S E Q    E S S E E S S E Q
||---------------------|--------------------|
||---------------------|--------------------|
||o--------------------|--------------------|
||---------------------|--------------------|
||o--------------------|--------------------|
||---------------------|--------------------|
||--4-3-3-3-3-3-3-3----|-4-3-3-3-3-3-3-3----|


  PM------------|      PM------------------|
  E S S E E S S E Q    E S S E E S S E S S E
|--------------------|-------------------------||
|--------------------|-------------------------||
|--------------------|------------------------o||
|--------------------|-------------------------||
|--------------------|------------------------o||
|--------------------|-------------------------||
|-4-3-3-3-3-3-3-3----|-4-3-3-3-3-6-6-6-6-6-6---||


 Pre-Chorus
  F5                F5                Eb5               Eb5
                                                        PM------------|
  E E E E E E E E   E E E E E E E E   E E E E E E E E   E E E E E E E E
|-----------------|-----------------|-----------------|------------------|
|-----------------|-----------------|-----------------|------------------|
|-----------------|-----------------|-----------------|------------------|
|-----------------|-----------------|-----------------|------------------|
|-8-8-8-8-8-8-8-8-|-8-8-8-8-8-8-8-8-|-6-6-6-6-6-6-6-6-|-6-6-6-6-6-6-6-6--|
|-8-8-8-8-8-8-8-8-|-8-8-8-8-8-8-8-8-|-6-6-6-6-6-6-6-6-|-6-6-6-6-6-6-6-6--|
|-6-6-6-6-6-6-6-6-|-6-6-6-6-6-6-6-6-|-4-4-4-4-4-4-4-4-|-4-4-4-4-4-4-4-4--|


   Chorus
    D5                                D5
    S S S S S S S S S S S S S S S S   S S S S S S S S S S S S S S S S
||----------------------------------|---------------------------------|
||----------------------------------|---------------------------------|
||o---------------------------------|---------------------------------|
||----------------------------------|---------------------------------|
||o---------------------------------|---------------------------------|
||--5-5-5-5-5-5-5-5-5-5-5-5-5-5-5-5-|-5-5-5-5-5-5-5-5-5-5-5-5-5-5-5-5-|
||--3-3-3-3-3-3-3-3-3-3-3-3-3-3-3-3-|-3-3-3-3-3-3-3-3-3-3-3-3-3-3-3-3-|


  C5                                Eb5
                                                    PM------|
  S S S S S S S S S S S S S S S S   S S S S S S S S E S S E E
|---------------------------------|---------------------------|
|---------------------------------|---------------------------|
|---------------------------------|---------------------------|
|---------------------------------|---------------------------|
|---------------------------------|---------------------------|
|-3-3-3-3-3-3-3-3-3-3-3-3-3-3-3-3-|-6-6-6-6-6-6-6-6-6-6-6-6-6-|
|-1-1-1-1-1-1-1-1-1-1-1-1-1-1-1-1-|-4-4-4-4-4-4-4-4-4-4-4-4-4-|


  S S S S S S S S S S S S S S S S   S S S S S S S S S S S S S S S S
|---------------------------------|---------------------------------|
|---------------------------------|---------------------------------|
|---------------------------------|---------------------------------|
|---------------------------------|---------------------------------|
|---------------------------------|---------------------------------|
|-5-5-5-5-5-5-5-5-5-5-5-5-5-5-5-5-|-5-5-5-5-5-5-5-5-5-5-5-5-5-5-5-5-|
|-3-3-3-3-3-3-3-3-3-3-3-3-3-3-3-3-|-3-3-3-3-3-3-3-3-3-3-3-3-3-3-3-3-|


  F5                                Eb5
                                                    PM------|
  S S S S S S S S S S S S S S S S   S S S S S S S S E S S E E
|---------------------------------|----------------------------||
|---------------------------------|----------------------------||
|---------------------------------|---------------------------o||
|---------------------------------|----------------------------||
|---------------------------------|---------------------------o||
|-8-8-8-8-8-8-8-8-8-8-8-8-8-8-8-8-|-6-6-6-6-6-6-6-6-6-6-6-6-6--||
|-6-6-6-6-6-6-6-6-6-6-6-6-6-6-6-6-|-4-4-4-4-4-4-4-4-4-4-4-4-4--||


   Breakdown
    N.C.
    Gtrs III, IV
    S S E +E  E E E Q    S S E +E  E +E  E Q
||---------------------|----------------------|
||---------------------|----------------------|
||o--------------------|----------------------|
||---------------------|----------------------|
||o--------------------|----------------------|
||---------------------|----------------------|
||--4-4-3-(3)-3-4-4-3--|-4-4-3-(3)-4-(4)-4-3--|


  S S E +E  E E E Q    S S E +E  E +E  E E E
|--------------------|-------------------------||
|--------------------|-------------------------||
|--------------------|------------------------o||
|--------------------|-------------------------||
|--------------------|------------------------o||
|--------------------|-------------------------||
|-4-4-3-(3)-3-4-4-3--|-4-4-3-(3)-4-(4)-4-3-----||


   Bridge
    Eb5 D5      Eb5 D5     N.C.
    Gtrs I, II, III, IV
    S S E +E  E E E Q  16x E E E E E E E E   E E E E E E E E
||----------------------||-----------------|-----------------|
||----------------------||-----------------|-----------------|
||o--------------------o||-----------------|-----------------|
||----------------------||-----------------|-----------------|
||o-6-6-5-(5)-5-6-6-5--o||-----------------|-----------------|
||--6-6-5-(5)-5-6-6-5---||-----------------|-----------------|
||--4-4-3-(3)-3-4-4-3---||-6-6-6-6-6-6-6-6-|-4-4-4-4-4-4-4-4-|


    Eb5 D5      Eb5 D5     N.C.
    S S E +E  E E E Q   8x E E E E E E E E   E E E E E E E E
||----------------------||-----------------|-----------------|
||----------------------||-----------------|-----------------|
||o--------------------o||-----------------|-----------------|
||----------------------||-----------------|-----------------|
||o-6-6-5-(5)-5-6-6-5--o||-----------------|-----------------|
||--6-6-5-(5)-5-6-6-5---||-----------------|-----------------|
||--4-4-3-(3)-3-4-4-3---||-6-6-6-6-6-6-6-6-|-4-4-4-4-4-4-4-4-|


  D5  Eb5 D5  Eb5   Eb5
  PM------------------------------|
  E E E E E E E E   E E E E E E E E
|-----------------|-----------------|
|-----------------|-----------------|
|-----------------|-----------------|
|-----------------|-----------------|
|-5-5-6-6-5-5-6-6-|-6-6-6-6-6-6-6-6-|
|-5-5-6-6-5-5-6-6-|-6-6-6-6-6-6-6-6-|
|-3-3-4-4-3-3-4-4-|-4-4-4-4-4-4-4-4-|


   Chorus
    D5                                D5
    S S S S S S S S S S S S S S S S   S S S S S S S S S S S S S S S S
||----------------------------------|---------------------------------|
||----------------------------------|---------------------------------|
||o---------------------------------|---------------------------------|
||----------------------------------|---------------------------------|
||o---------------------------------|---------------------------------|
||--5-5-5-5-5-5-5-5-5-5-5-5-5-5-5-5-|-5-5-5-5-5-5-5-5-5-5-5-5-5-5-5-5-|
||--3-3-3-3-3-3-3-3-3-3-3-3-3-3-3-3-|-3-3-3-3-3-3-3-3-3-3-3-3-3-3-3-3-|


  C5                                Eb5
                                                    PM------|
  S S S S S S S S S S S S S S S S   S S S S S S S S E S S E E
|---------------------------------|---------------------------|
|---------------------------------|---------------------------|
|---------------------------------|---------------------------|
|---------------------------------|---------------------------|
|---------------------------------|---------------------------|
|-3-3-3-3-3-3-3-3-3-3-3-3-3-3-3-3-|-6-6-6-6-6-6-6-6-6-6-6-6-6-|
|-1-1-1-1-1-1-1-1-1-1-1-1-1-1-1-1-|-4-4-4-4-4-4-4-4-4-4-4-4-4-|


  D5                                D5
  S S S S S S S S S S S S S S S S   S S S S S S S S S S S S S S S S
|---------------------------------|---------------------------------|
|---------------------------------|---------------------------------|
|---------------------------------|---------------------------------|
|---------------------------------|---------------------------------|
|---------------------------------|---------------------------------|
|-5-5-5-5-5-5-5-5-5-5-5-5-5-5-5-5-|-5-5-5-5-5-5-5-5-5-5-5-5-5-5-5-5-|
|-3-3-3-3-3-3-3-3-3-3-3-3-3-3-3-3-|-3-3-3-3-3-3-3-3-3-3-3-3-3-3-3-3-|


  F5                                Eb5
                                                    PM------|
  S S S S S S S S S S S S S S S S   S S S S S S S S E S S E E
|---------------------------------|----------------------------||
|---------------------------------|----------------------------||
|---------------------------------|---------------------------o||
|---------------------------------|----------------------------||
|---------------------------------|---------------------------o||
|-8-8-8-8-8-8-8-8-8-8-8-8-8-8-8-8-|-6-6-6-6-6-6-6-6-6-6-6-6-6--||
|-6-6-6-6-6-6-6-6-6-6-6-6-6-6-6-6-|-4-4-4-4-4-4-4-4-4-4-4-4-4--||


   Outro
    EbD5
    PM-----------------------------------------------
    E S S E E S S E E S S   E E S S E S S E S S E  3x
||------------------------|------------------------||
||------------------------|------------------------||
||o-----------------------|-----------------------o||
||------------------------|------------------------||
||o-----------------------|-----------------------o||
||--6-5-5-5-5-5-5-5-5-5-5-|-5-5-5-5-5-5-5-5-5-5-5--||
||--4-3-3-3-3-3-3-3-3-3-3-|-3-3-3-3-3-3-3-3-3-3-3--||


  EbD5                              Eb5
 -------------------------------------------------|
  E S S E E S S E E S S   E E S S E S S S S S S S S
|-----------------------|---------------------------|
|-----------------------|---------------------------|
|-----------------------|---------------------------|
|-----------------------|---------------------------|
|-----------------------|---------------------------|
|-6-5-5-5-5-5-5-5-5-5-5-|-5-5-5-5-5-6-6-6-6-6-6-6-6-|
|-4-3-3-3-3-3-3-3-3-3-3-|-3-3-3-3-3-4-4-4-4-4-4-4-4-|


    EbD5
    PM-----------------------------------------------
    E S S E E S S E E S S   E E S S E S S E S S E  3x
||------------------------|------------------------||
||------------------------|------------------------||
||o-----------------------|-----------------------o||
||------------------------|------------------------||
||o-----------------------|-----------------------o||
||--6-5-5-5-5-5-5-5-5-5-5-|-5-5-5-5-5-5-5-5-5-5-5--||
||--4-3-3-3-3-3-3-3-3-3-3-|-3-3-3-3-3-3-3-3-3-3-3--||


  EbD5
 ---------------------------------------|
  E S S E E S S E E S S   E E S S E S S E Q
|-----------------------|----------------------*|
|-----------------------|----------------------*|
|-----------------------|----------------------*|
|-----------------------|----------------------*|
|-----------------------|----------------------*|
|-6-5-5-5-5-5-5-5-5-5-5-|-5-5-5-5-5-5-5-5------*|
|-4-3-3-3-3-3-3-3-3-3-3-|-3-3-3-3-3-3-3-3------*|

Duration Legend
---------------
W - whole; H - half; Q - quarter; E - 8th; S - 16th; T - 32nd; X - 64th; a - acciaccatura
+ - note tied to previous; . - note dotted; .. - note double dotted
Uncapitalized letters represent notes that are staccato (1/2 duration)
Irregular groupings are notated above the duration line
Duration letters will always appear directly above the note/fret number it represents the
duration for.  Duration letters with no fret number below them represent rests.  Multi-
bar rests are notated in the form Wxn, where n is the number of bars to rest for.  Low
melody durations appear below the staff

Tablature Legend
----------------
 h   - hammer-on
 p   - pull-off
 b   - bend
 pb  - pre-bend
 r   - bend release (if no number after the r, then release immediately)
 /\  - slide into or out of (from/to "nowhere")
 s   - legato slide
 S   - shift slide
 - natural harmonic
[n]  - artificial harmonic
n(n) - tapped harmonic
 ~   - vibrato
 tr  - trill
 T   - tap
 TP  - trem. picking
 PM  - palm muting
\n/  - tremolo bar dip; n = amount to dip
 \n  - tremolo bar down
 n/  - tremolo bar up
/n\  - tremolo bar inverted dip
 =   - hold bend; also acts as connecting device for hammers/pulls
 <> - volume swell (louder/softer)
 x   - on rhythm slash represents muted slash
 o   - on rhythm slash represents single note slash

Misc Legend
-----------
 |  - bar
||  - double bar
||o - repeat start
o|| - repeat end
*|  - double bar (ending)
 :  - bar (freetime)
 $  - Segno
 &  - Coda
Tempo markers -  = BPM(8/16=s8/s16), where s8 = swing 8ths, s16 = swing 16ths


______________________________________________
_____________________________________________________


BAND :  FEAR FACTORY
SONG :  CYBERWASTE
ALBUM:  ARCHETYPE

TUNING:  7 STRING GUITAR IN STANDARD-BEADGBE


CHORUS
		     X3
E|-----------------------|--------------|
B|-----------------------|--------------|
G|-----------------------|--------------|
D|-----------------------|--------------| X2
A|-----------------------|--------8-----|
E|--6--5-----------------|--6--5--6--8--|
B|--4--3--6-6-6-6-6-6-6--|--4--3-----6--|


0: 08

	   		X3
E|---------------------------------|-------------------------------------|
B|---------------------------------|-------------------------------------|
G|---------------------------------|-------------------------------------|
D|---------------------------------|-------------------------------------| X3
A|----------3--------------8-------|-----3------pm-pm-pm-pm-pm-pm--------|
E|--6---5---1--3---6---5---6---8---|--6---5---1--3---5-5-5-5-5-5-5-5-----|
B|--4---3------1---4---3-------6---|--4---3------1---3-3-3-3-3-3-3-3-----|


(back to chorus)


0: 40

E|------------------------------------------------------------------------|
B|------------------------------------------------------------------------|
G|------------------------------------------------------------------------|
D|------------------------------------------------------------------------|
A|---------------------4-4-4-4-4-4-4-4------------------------------------|
E|---5-5-5-5-5-5-5-5---2-2-2-2-2-2-2-2---3-3-3-3-3-3-3-3---6-6-6-6-6-6-6-6|
B|---3-3-3-3-3-3-3-3---------------1-1-1-1-1-1-1-1---4-4-4-4-4-4-4-4------|

E|------------------------------------------------------------------------|
B|------------------------------------------------------------------------|
G|------------------------------------------------------------------------|
D|------------------------------------------------------------------------|
A|---------------------4-4-4-4-4-4-4-4---5-5-5-5-5-5-5-5------------------|
E|---5-5-5-5-5-5-5-5---2-2-2-2-2-2-2-2---3-3-3-3-3-3-3-3---------5-5------|
B|---3-3-3-3-3-3-3-3------------------------------------3-3-3-2--3-3------|

E|------------------------------------------------------------------------|
B|------------------------------------------------------------------------|
G|------------------------------------------------------------------------|
D|------------------------------------------------------------------------|
A|---------------------4-4-4-4-4-4-4-4------------------------------------|
E|---5-5-5-5-5-5-5-5---2-2-2-2-2-2-2-2---3-3-3-3-3-3-3-3---6-6-6-6-6-6-6-6|
B|---3-3-3-3-3-3-3-3---------------------1-1-1-1-1-1-1-1---4-4-4-4-4-4-4-4|

E|------------------------------------------------------------------------|
B|------------------------------------------------------------------------|
G|------------------------------------------------------------------------|
D|------------------------------------------------------------------------|
A|---------------------4-4-4-4-4-4-4-4---3-3-3-3-3-3-3-3------------------|
E|---5-5-5-5-5-5-5-5---2-2-2-2-2-2-2-2---1-1-1-1-1-1-1-1---------5-5------|
B|---3-3-3-3-3-3-3-3------------------------------------3-3-3-2--3-3------|


(repeat whole thing again)

1: 46

E|-----------------------------------------------------------------------|
B|-----------------------------------------------------------------------|
G|-----------------------------------------------------------------------|
D|-----------------------------------------------------------------------| x8
A|-----------------------------------------------------------------------|
E|---6-5--7--7-6--8--8-7---9--9--10--------------------------------------|
B|---4-3--5--5-4--6--6-5---7--7--8---------------------------------------|

2: 03

E|-----------------------------------------------------------------------|
B|-----------------------------------------------------------------------|
G|-----------------------------------------------------------------------|
D|-----------------------------------------------------------------------| X4
A|---tremolo   picking---------------------------------------------------|
E|------------------------9--9--10---------------------------------------|
B|---4-3--5--5-4--6--6-5--7--7--8----------------------------------------|

(back to verse riff)

2: 29

E|-----------------------------------------------------------------------|
B|-----------------------------------------------------------------------|
G|-----------------------------------------------------------------------|
D|-----------------------------------------------------------------------|
A|---tremolo picking---------------------tremolo picking-----------------|
E|---------pm-------------pm-pm-pm-pm-pm-pm------------pm----------------|
B|---------3--------------3-3-3-3-3-3-3-3--------------3-----------------|


2: 32

E|-----------------------------------------------------------------------|
B|-----------------------------------------------------------------------|
G|-----------------------------------------------------------------------|
D|----------------------------------6--4--3--4--6--4--6--7---------------| X4
A|-----6--4--3--4--6--4--6--7-------x--x--x--x--x--x--x--x---------------|
E|-----4--2--1--2--4--2--4--5-------4--2--1--2--4--2--4--5---------------|
B|-----------------------------------------------------------------------|

2: 48

E|-----------------------------------------------------------------------|
B|-----------------------------------------------------------------------|
G|-----------------------------------------------------------------------|
D|-----------------------------------------------------------------------| X4
A|-----6--4--3--4--6--4--6--7--------------------------------------------|
E|-----4--2--1--2--4--2--4--5--------------------------------------------|
B|-----------------------------------------------------------------------|

2: 57

E|-----------------------------------------------------------------------|
B|-----------------------------------------------------------------------|
G|-----------------------------------------------------------------------|
D|-----------------------------------------------------------------------|
A|---6--4--3--4--6--4--6--7----------------------------------------------| X4
E|---x--x--x--x--x--x--x--x----------------------------------------------|
B|---4--2--1--2--4--2--4--5----------------------------------------------|

3: 05

E|-----------------------------------------------------------------------|
B|-----------------------------------------------------------------------|
G|-----------------------------------------------------------------------|
D|-----------------------------------------------------------------------| X2
A|-----6--4--3--4--6--4--6--7--------------------------------------------|
E|-----4--2--1--2--4--2--4--5--------------------------------------------|
B|-----------------------------------------------------------------------|

3: 09

E|-----------------------------------------------------------------------|
B|-----------------------------------------------------------------------|
G|-----------------------------------------------------------------------|
D|-----tremolo picking---------------------------------------------------|
A|-----pm-pm-pm-pm-pm-pm-pm-pm-------------------------------------------|
E|-----4--2--1--2--4--2--4--5--------------------------------------------|
B|-----------------------------------------------------------------------|

3:11

E|-----------------------------------------------------------------------|
B|-----------------------------------------------------------------------|
G|-----------------------------------------------------------------------|
D|-----pm-pm-pm-pm-pm-pm-pm-pm-------------------------------------------|
A|-----6--4--3--4--6--4--6--7--------------------------------------------|
E|-----4--2--1--2--4--2--4--5--------------------------------------------|
B|-----------------------------------------------------------------------|


(back to chorus)

_______________________
_______________________

Key

palm mute = .
H = Hammer
P = Pull off


Intro:

E|------------------------------------------------------------------------|
B|------------------------------------------------------------------------|
G|------------------------------------------------------------------------|
D|------------------------------------------------------------------------|
A|------------------------------------------------------------------------|
E|-5-4-4-4-4-----4-4-4-4-4---------5-4-4-4-4-----4-4-4-4-4----------------|
PM . . . . .     . . . . .         . . . . .     . . . . .

E|------------------------------------------------------------------------|
B|------------------------------------------------------------------------|
G|------------------------------------------------------------------------|
D|------------------------------------------------------------------------|
A|------------------------------------------------------------------------|
E|-5-4-4-4-4-----4-4-4-4-4---------5-4-4-4-4-----4-4-4-4-4----------4-2-2-|
PM . . . . .     . . . . .         . . . . .     . . . . .          . . .

E|--------------------------------------------------------------------------|
B|--------------------------------------------------------------------------|
G|--------------------------------------------------------------------------|
D|--------------------------------------------------------------------------|
A|--------------------------------------------------------------------------|
E|-5-4-4-4-4-----4-4-4-4-4----4-2-2-------5-4-4-4-4------4-4-4-4-4----4-4-4-|
Pm . . . . .     . . . . .    . . .       . . . . .      . . . . .    . . .

E|--------------------------------------------------------------------------|
B|--------------------------------------------------------------------------|
G|--------------------------------------------------------------------------|
D|--------------------------------------------------------------------------|
A|--------------------------------------------------------------------------|
E|-5-4-4-4-4-----4-4-4-4-4----4-4-4-------5-4-4-4-4------4-4-4-4-4----4-4-4-|
Pm . . . . .     . . . . .    . . .       . . . . .      . . . . .    . . .

Verse:

E|------------------------------------------------------------------------|
B|------------------------------------------------------------------------|x7
G|------------------------------------------------------------------------|
D|------------------------------------------------------------------------|
A|------------------------------------------------------------------------|
E|-5-4-4-4-4-4-4-4-4------------4-4-4---------------4-4-------------------|
Pm . . . . . . . . .            . . .               . .

E|----------------------------------|
B|----------------------------------|
G|----------------------------------|
D|----------------------------------|
A|----------------------------------|
E|-4--------4-4-4--------2---5-4----|
PM .        . . .        .   . .

Pre Chorus:

E|-----------------------------------------------|
B|-----------------------------------------------|
G|-----------------------------------------------|
D|-2-------2------2-2-------2-------2-2--------2-|
A|-2-------2------2-2-------2-------2-2--------2-|
E|-2-------2------2-2-------2-------2-2--------2-|
PM .       .      . .       .       . .        .

Chorus:

E|------------------|        E|-------------------------------|
B|-9----------------|x3      B|-6-----------------------------|
G|-9-------------7--|        G|-6-----------------------------|
D|-7-------------7--|        D|-4-----------------------------|
A|---------------5--|        A|---------------7-6-6-7-6-6-7-6-|
E|------------------|        E|---------------7-6-6-7-6-6-7-6-|


This Is The HOLY WAR....... Part

E|--------------------------------------------------|
B|--------------------------------------------------|
G|--------------------------------------------------|
D|--------------------------------------------------|
A|--------------------------------------------------|
E|-1-----4-----3-2----------1-----4-3-----2-----1-1-|
PM                                              . .

E|---------------------------------------------------------|
B|---------------------------------------------------------|
G|---------------------------------------------------------|
D|----------------------------------------1----------------|
A|----------------------------------------1----------------|
E|-4-----3-----2-1---------4-----3-2------1-------------1--|
PM                                        .

___________
___________

FEAR FACTORY - DRONES


Tuning: Drop A
Tabbed By: Thommoboy


INTRO
|-----------------------------------------------|
|-----------------------------------------------|
|-1--0--0--0-------0--0--0--0-------0--0--0--0--|
  .  .  .  .       .  .  .  .       .  .  .  .


|-----------------------------------------------|
|-----------------------------------------------|
|-1--0--0--0--------0-0-0-1-------1-1-1-1---1---|
  .  .  .  .        . . . .       . . . .   .

(0:46)
|-------------------------------------------------------------------------|
|-------------------------------------------------------------------------|
|-1--0--0--0--------0-0-0-1-------1-1-1-1------0-0-0-1------1-1-1-1---1---|
  .  .  .  .        . . . .       . . . .      . . . .      . . . .   .


MAIN/VERSE
|-----------------------------------------------|
|-----------------------------------------------|
|-1--0--0--0-------0--0--0--0-------0--0--0--0--|
  .  .  .  .       .  .  .  .       .  .  .  .


|------------------------------------------------|
|------------------------------------------------|
|-1--0--0--0-------0--0--1--1--1--1--1--1--1--1--|
  .  .  .  .       .  .  .  .  .  .  .  .  .  .


PRE CHORUS
|----------------------------------------------------------------------------|
|----------------------------------------------------------------------------|
|-1----1----------8---8---------10-------3----3----------5---5---------3-----|
|-1----1-------x--8---8---------10-------3----3----------5---5---------3-----|
|-1----1-------x--8---8------8--10-------3----3-------3--5---5------5--3-----|
                             .                        .             .


|----------------------------------------|
|----------------------------------------|
|-1----1----------8---8---------10-------|
|-1----1-------x--8---8---------10-------|
|-1----1-------x--8---8------8--10-------|
                             .

CHORUS
|-------------------------------------------------------------------|
|-------------------------------------------------------------------|
|-5-------------------------------7---------------------------------|
|-5-------------------------------7---------------------------------|
|-5-------------------------------7---------------------------------|


|-------------------------------------------------------------------|
|-------------------------------------------------------------------|
|-8-------------------------------10--------------------------------|
|-8-------------------------------10--------------------------------|
|-8-------------------------------10--------------------------------|


(2nd Version)
|-------------------------------------------------------------------|
|-------------------------------------------------------------------|
|-5-------------------------------7---------------------------------|
|-5-------------------------------7---------------------------------|
|-5-----------------------5-5-5-5-7-------------------------7-7-7-7-|
                          . . . .                           . . . .


|-------------------------------------------------------------------|
|-------------------------------------------------------------------|
|-8-------------------------------10--------------------------------|
|-8-------------------------------10--------------------------------|
|-8---------------8-8-8-8-8-8-8-8-10--------------------------------|
                  . . . . . . . .

SPEED RIFF
|-------------------------------------------------------------------|
|-------------------------------------------------------------------|
|-2-2-2-2-2-2-2-2-2--------------------2-2-2-2-2-2-2----------------|
  . . . . . . . . .                    . . . . . . .


|-------------------------------------------------------------------|
|-------------------------------------------------------------------|
|-2-2-2-2-2-2--------2-2-2-2-2-2--------2-2-2-2-2-2-2-2-2-2-2-2-----|
  . . . . . .        . . . . . .        . . . . . . . . . . . .


OUTRO
|-------------------------------------------------------------------|
|-------------------------------------------------------------------|
|-5-------------------------------7---------------------------------|
|-5-------------------------------7---------------------------------|
|-5-----------------------5-5-5-5-7-------------------------7-7-7-7-|
                          . . . .                           . . . .


|-------------------------------------------------------------------|
|-------------------------------------------------------------------|
|-8-------------------------------10--------------------------------|
|-8-------------------------------10--------------------------------|
|-8-----------------------8-8-8-8-10--------------------10-10-10-10-|
                          . . . .                       .  .  .  .

|-------------------------------------------------------------------|
|-------------------------------------------------------------------|
|-5-------------------------------7---------------------------------|
|-5-------------------------------7---------------------------------|
|-5-----------------------5-5-5-5-7-------------------------7-7-7-7-|
                          . . . .                           . . . .


|-------------------------------------------------------------------|
|-------------------------------------------------------------------|
|-8-------------------------------10--------------------------------|
|-8-------------------------------10--------------------------------|
|-8-------------------8--8--8--8--10--------------------------------|
                      .  .  .  .

__________
__________

CORPORATE CLONING
As recorded by Fear Factory
(From the 2004 Album ARCHETYPE)

Transcribed by M. Trenke


Words and Music by Fear Factory

Gtr I (B E A D G B E) - 'Untitled'

   Intro
    Q=94
    B5                                                     C5
   4/4
    Gtr I
    PM---------------------------------------------------------|
                                                           |-3-|
    S S S S S S S S S S S S S E.   S S S S S S S S S S S S E E E
||-------------------------------|---------------------------------||
||-------------------------------|---------------------------------||
||o------------------------------|--------------------------------o||
||-------------------------------|---------------------------------||
||o------------------------------|--------------------------------o||
||--2-2-2-2-2-2-2-2-2-2-2-2-2----|-2-2-2-2-2-2-2-2-2-2-2-2-3-3-3---||
||--0-0-0-0-0-0-0-0-0-0-0-0-0----|-0-0-0-0-0-0-0-0-0-0-0-0-1-1-1---||


    N.C.
    PM--------------------------------------------------------------------|
                                                                      |-3-|
    T T S S S S S S S T T S S S S S S S   T T S S S S S S S T T S S S E E E   3x
||--------------------------------------|-------------------------------------||
||--------------------------------------|-------------------------------------||
||o-------------------------------------|------------------------------------o||
||--------------------------------------|-------------------------------------||
||o-------------------------------------|------------------------------------o||
||--------------------------------------|-------------------------------------||
||--1-1-0-0-0-0-0-0-0-1-1-0-0-0-0-0-0-0-|-1-1-0-0-0-0-0-0-0-1-1-0-0-0-1-1-1---||


  PM---------------------------------------
  T T S S S T T S S S T T S S S T T S S S
|-----------------------------------------|
|-----------------------------------------|
|-----------------------------------------|
|-----------------------------------------|
|-----------------------------------------|
|-----------------------------------------|
|-1-1-0-0-0-1-1-0-0-0-1-1-0-0-0-1-1-0-0-0-|


 -----------------------------------|
                                |-3-|
  T T S S S T T S S S T T S S S E E E
|---------------------------------------|
|---------------------------------------|
|---------------------------------------|
|---------------------------------------|
|---------------------------------------|
|---------------------------------------|
|-1-1-0-0-0-1-1-0-0-0-1-1-0-0-0-1-1-1---|


   Verse 1
    N.C.
    PM---------------------------------------------------------------|
                                                                 |-3-|
    T T S S S S S E T T S S S S E.  3x T T S S S S S E T T S S S E E E
||----------------------------------||---------------------------------|
||----------------------------------||---------------------------------|
||o--------------------------------o||---------------------------------|
||----------------------------------||---------------------------------|
||o--------------------------------o||---------------------------------|
||----------------------------------||---------------------------------|
||--3-3-2-2-2-2-2---3-3-2-2-2-2-2---||-3-3-2-2-2-2-2---3-3-2-2-2-3-3-3-|


    PM-----------------------------------------------------------------|
                                                                   |-3-|
    T T S S S S E. T T S S S S S E  3x T T S S S S S S S T T S S S E E E
||----------------------------------||-----------------------------------|
||----------------------------------||-----------------------------------|
||o--------------------------------o||-----------------------------------|
||----------------------------------||-----------------------------------|
||o--------------------------------o||-----------------------------------|
||----------------------------------||-----------------------------------|
||--3-3-2-2-2-2-2--3-3-2-2-2-2-2----||-3-3-2-2-2-2-2-2-2-3-3-2-2-2-3-3-3-|


 Bridge
  D5C#5     D5 C#E5    D5F5   D5C#5     D5 C#E5    D5F5
  S S S S S E. S S S S S E.   S S S S S E. S S S S S S E
|---------------------------|----------------------------|
|---------------------------|----------------------------|
|---------------------------|----------------------------|
|---------------------------|----------------------------|
|-5-4-4-4-4-5--4-7-7-7-5-8--|-5-4-4-4-4-5--4-7-7-7-5-8---|
|-5-4-4-4-4-5--4-7-7-7-5-8--|-5-4-4-4-4-5--4-7-7-7-5-8---|
|-3-2-2-2-2-3--2-5-5-5-3-6--|-3-2-2-2-2-3--2-5-5-5-3-6---|


   Verse 2 & 3
    $
    N.C.
    PM---------------------------------------------------------------|
                                                                 |-3-|
    T T S S S S S E T T S S S S E.  3x T T S S S S S E T T S S S E E E
||----------------------------------||---------------------------------|
||----------------------------------||---------------------------------|
||o--------------------------------o||---------------------------------|
||----------------------------------||---------------------------------|
||o--------------------------------o||---------------------------------|
||----------------------------------||---------------------------------|
||--3-3-2-2-2-2-2---3-3-2-2-2-2-2---||-3-3-2-2-2-2-2---3-3-2-2-2-3-3-3-|


    PM-----------------------------------------------------------------|
                                                                   |-3-|
    T T S S S S E. T T S S S S S E  3x T T S S S S S S S T T S S S E E E
||----------------------------------||-----------------------------------|
||----------------------------------||-----------------------------------|
||o--------------------------------o||-----------------------------------|
||----------------------------------||-----------------------------------|
||o--------------------------------o||-----------------------------------|
||----------------------------------||-----------------------------------|
||--3-3-2-2-2-2-2--3-3-2-2-2-2-2----||-3-3-2-2-2-2-2-2-2-3-3-2-2-2-3-3-3-|


   Bridge
    D5C#5     D5 C#E5    D5F5   D5C#5     D5 C#E5    D5F5
    S S S S S E. S S S S S E.   S S S S S E. S S S S S E.
||----------------------------|----------------------------||
||----------------------------|----------------------------||
||o---------------------------|---------------------------o||
||----------------------------|----------------------------||
||o-5-4-4-4-4-5--4-7-7-7-5-8--|-5-4-4-4-4-5--4-7-7-7-5-8--o||
||--5-4-4-4-4-5--4-7-7-7-5-8--|-5-4-4-4-4-5--4-7-7-7-5-8---||
||--3-2-2-2-2-3--2-5-5-5-3-6--|-3-2-2-2-2-3--2-5-5-5-3-6---||


   Chorus 1 & 2
    N.C.            A5N.C.                    A5E5  F5   G5
    PM------------|   PM--------------------|
    T T T T T T T T E T T T T T T T T T T T T E E   Q.   E +E  E Q
||------------------------------------------------|-----------------|
||------------------------------------------------|-----------------|
||o-----------------------------------------------|-----------------|
||------------------7-------------------------7-2-|-3----5-(5)-5-5--|
||o-----------------7-------------------------7-2-|-3----5-(5)-5-5--|
||------------------5-------------------------5-0-|-1----3-(3)-3-3--|
||--3-3-3-3-3-3-3-3---3-3-3-3-3-3-3-3-3-3-3-3-----|-----------------|


                                                          To Coda
  N.C.            A5N.C.                    A5E5  F5   G5
  PM------------|   PM--------------------|
  T T T T T T T T E T T T T T T T T T T T T E E   Q  E E +E  E Q
|-----------------------------------------------|-------------------||
|-----------------------------------------------|-------------------||
|-----------------------------------------------|----0---------0---o||
|-----------------7-------------------------7-2-|-3----5-(5)-5------||
|-----------------7-------------------------7-2-|-3----5-(5)-5-----o||
|-----------------5-------------------------5-0-|-1----3-(3)-3------||
|-3-3-3-3-3-3-3-3---3-3-3-3-3-3-3-3-3-3-3-3-----|-------------------||


   Interlude
    B5                                                     C5
    Gtr I
    PM---------------------------------------------------------|
                                                           |-3-|
    S S S S S S S S S S S S S E.   S S S S S S S S S S S S E E E
||-------------------------------|--------------------------------||
||-------------------------------|--------------------------------||
||o------------------------------|-------------------------------o||
||-------------------------------|--------------------------------||
||o------------------------------|-------------------------------o||
||--2-2-2-2-2-2-2-2-2-2-2-2-2----|-2-2-2-2-2-2-2-2-2-2-2-2-3-3-3--||
||--0-0-0-0-0-0-0-0-0-0-0-0-0----|-0-0-0-0-0-0-0-0-0-0-0-0-1-1-1--||


  N.C.
  PM--------------------------------------------------------------------|
                                                                    |-3-|
  T T S S S S S S S T T S S S S S S S   T T S S S S S S S T T S S S E E E
|-------------------------------------|-----------------------------------|
|-------------------------------------|-----------------------------------|
|-------------------------------------|-----------------------------------|
|-------------------------------------|-----------------------------------|
|-------------------------------------|-----------------------------------|
|-------------------------------------|-----------------------------------|
|-1-1-0-0-0-0-0-0-0-1-1-0-0-0-0-0-0-0-|-1-1-0-0-0-0-0-0-0-1-1-0-0-0-1-1-1-|


                                                            D.S. al Coda
  PM--------------------------------------------------------------------|
                                                                    |-3-|
  T T S S S S S S S T T S S S S S S S   T T S S S S S S S T T S S S E E E
|-------------------------------------|-----------------------------------|
|-------------------------------------|-----------------------------------|
|-------------------------------------|-----------------------------------|
|-------------------------------------|-----------------------------------|
|-------------------------------------|-----------------------------------|
|-------------------------------------|-----------------------------------|
|-1-1-0-0-0-0-0-0-0-1-1-0-0-0-0-0-0-0-|-1-1-0-0-0-0-0-0-0-1-1-0-0-0-1-1-1-|


  &
  F5   G5           F5   G5           F5   G5
  Q  E E +E  E Q    Q  E E +E  E Q    Q  E E +E  E Q
|-----------------|-----------------|-----------------|
|-----------------|-----------------|-----------------|
|----0---------0--|----0---------0--|----0---------0--|
|-3----5-(5)-5----|-3----5-(5)-5----|-3----5-(5)-5----|
|-3----5-(5)-5----|-3----5-(5)-5----|-3----5-(5)-5----|
|-1----3-(3)-3----|-1----3-(3)-3----|-1----3-(3)-3----|
|-----------------|-----------------|-----------------|


 Breakdown
  N.C.
                     PM----|                   PM------------|
  W          H.      S S S S   W          H    S S S S S S S S
|----------|-----------------|----------|----------------------|
|----------|-----------------|----------|----------------------|
|----------|-----------------|----------|----------------------|
|----------|-----------------|----------|----------------------|
|----------|-----------------|----------|----------------------|
|----------|---------3-3-3-3-|----------|------3-3-3-3-3-3-3-3-|
|----------|-----------------|----------|----------------------|


  G5F#5 G5G#5 G5F#5 G5G#5 G5F#G5G#5 G5F#5 G5G#5 G5F#5 G5G#5 G5
                                                            PM----|
  S S S S S S S S S S S S S S S S   S S S S S S S S S S S S S S S S
|---------------------------------|---------------------------------|
|---------------------------------|---------------------------------|
|---------------------------------|---------------------------------|
|---------------------------------|---------------------------------|
|-5s4---5s6---5s4---5s6---5s4-5s6-|-5s4---5s6---5s4---5s6---5-5-5-5-|
|-3s2-0-3s4-0-3s2-0-3s4-0-3s2-3s4-|-3s2-0-3s4-0-3s2-0-3s4-0-3-3-3-3-|
|---------------------------------|---------------------------------|


  G5F#5 G5G#5 G5G#5 G5G#5 G5F#G5G#5
  S S S S S S S S S S S S S S S S
|---------------------------------|
|---------------------------------|
|---------------------------------|
|---------------------------------|
|-5s4---5s6---5s4---5s6---5s4-5s6-|
|-3s2-0-3s4-0-3s2-0-3s4-0-3s2-3s4-|
|---------------------------------|


  G5F#5 G5G#5 G5F#G5                F#5     E5
                                   2/4
                  PM----------------------------|
                                            |-3-|
  S S S S S S S S S S S S S S S S   S S S S E E E
|---------------------------------|----------------|
|---------------------------------|----------------|
|---------------------------------|----------------|
|---------------------------------|----------------|
|-5s4---5s6---5s4-5-5-5-5-5-5-5-5-|-4-4-4-4-2-2-2--|
|-3s2-0-3s4-0-3s2-3-3-3-3-3-3-3-3-|-2-2-2-2-0-0-0--|
|---------------------------------|----------------|


   Chorus 3
    N.C.            A5N.C.                    A5E5  F5   G5
   4/4
    PM------------|   PM--------------------|
    T T T T T T T T E T T T T T T T T T T T T E E   Q.   E +E  E Q
||------------------------------------------------|-----------------|
||------------------------------------------------|-----------------|
||o-----------------------------------------------|-----------------|
||------------------7-------------------------7-2-|-3----5-(5)-5-5--|
||o-----------------7-------------------------7-2-|-3----5-(5)-5-5--|
||------------------5-------------------------5-0-|-1----3-(3)-3-3--|
||--3-3-3-3-3-3-3-3---3-3-3-3-3-3-3-3-3-3-3-3-----|-----------------|


  N.C.            A5N.C.                    A5E5  F5   G5
  PM------------|   PM--------------------|
  T T T T T T T T E T T T T T T T T T T T T E E   Q  E E +E  E Q
|-----------------------------------------------|-----------------||
|-----------------------------------------------|-----------------||
|-----------------------------------------------|----0---------0-o||
|-----------------7-------------------------7-2-|-3----5-(5)-5----||
|-----------------7-------------------------7-2-|-3----5-(5)-5---o||
|-----------------5-------------------------5-0-|-1----3-(3)-3----||
|-3-3-3-3-3-3-3-3---3-3-3-3-3-3-3-3-3-3-3-3-----|-----------------||


    N.C.            A5N.C.                    A5E5  F5   G5
    PM------------|   PM--------------------|
    T T T T T T T T E T T T T T T T T T T T T E E   Q  E E +E  E Q   4x
||------------------------------------------------|------------------||
||------------------------------------------------|------------------||
||o-----------------------------------------------|----0---------0--o||
||------------------7-------------------------7-2-|-3----5-(5)-5-----||
||o-----------------7-------------------------7-2-|-3----5-(5)-5----o||
||------------------5-------------------------5-0-|-1----3-(3)-3-----||
||--3-3-3-3-3-3-3-3---3-3-3-3-3-3-3-3-3-3-3-3-----|------------------||


  F5   G5           F5    G5
  Q  E E +E  E Q    Q  Q  H      +W
|-----------------|------------|--------*|
|-----------------|------------|--------*|
|----0---------0--|-------0----|-(0)----*|
|-3----5-(5)-5----|-3--3--5----|-(5)----*|
|-3----5-(5)-5----|-3--3--5----|-(5)----*|
|-1----3-(3)-3----|-1--1--3----|-(3)----*|
|-----------------|------------|--------*|

Duration Legend
---------------
W - whole; H - half; Q - quarter; E - 8th; S - 16th; T - 32nd; X - 64th; a - acciaccatura
+ - note tied to previous; . - note dotted; .. - note double dotted
Uncapitalized letters represent notes that are staccato (1/2 duration)
Irregular groupings are notated above the duration line
Duration letters will always appear directly above the note/fret number it represents the
duration for.  Duration letters with no fret number below them represent rests.  Multi-
bar rests are notated in the form Wxn, where n is the number of bars to rest for.  Low
melody durations appear below the staff

Tablature Legend
----------------
 h   - hammer-on
 p   - pull-off
 b   - bend
 pb  - pre-bend
 r   - bend release (if no number after the r, then release immediately)
 /\  - slide into or out of (from/to "nowhere")
 s   - legato slide
 S   - shift slide
 - natural harmonic
[n]  - artificial harmonic
n(n) - tapped harmonic
 ~   - vibrato
 tr  - trill
 T   - tap
 TP  - trem. picking
 PM  - palm muting
\n/  - tremolo bar dip; n = amount to dip
 \n  - tremolo bar down
 n/  - tremolo bar up
/n\  - tremolo bar inverted dip
 =   - hold bend; also acts as connecting device for hammers/pulls
 <> - volume swell (louder/softer)
 x   - on rhythm slash represents muted slash
 o   - on rhythm slash represents single note slash

Misc Legend
-----------
 |  - bar
||  - double bar
||o - repeat start
o|| - repeat end
*|  - double bar (ending)
 :  - bar (freetime)
 $  - Segno
 &  - Coda
Tempo markers -  = BPM(8/16=s8/s16), where s8 = swing 8ths, s16 = swing 16ths

_____
_____
Artist: Fear Factory
Album: Archetype
Song: Archetype
Tuning: B,F#,B,E,G#,C#

B||-444-444-444-444-44444444--333-333-333-333-33333333--111-111-111-111-11111111----||
G||-555-555-555-555-55555555--777-777-777-777-77777777--444-444-444-444-44444444----||
D||-666-666-666-666-66666666--333-333-333-333-33333333--333-333-333-333-33333333----||
A||-777-777-777-777-77777777--333-333-333-333-33333333--111-111-111-111-11111111----||
E||-444-444-444-444-66666666--333-333-333-333-33333333--111-111-111-111-11111111----||
B||-444-444-444-444-44444444--333-333-333-333-33333333--111-111-111-111-11111111----||

B||-333-333-333-333-33333333------||
G||-777-777-777-777-77777777------||
D||-333-333-333-333-33333333------||
A||-333-333-333-333-33333333------||
E||-333-333-333-333-33333333------||
B||-333-333-333-333-33333333------||  X2
                  pm--------------||

B||-----------------------------------------------------------------------------------||
G||-----------------------------------------------------------------------------------||
D||-----------------------------------------------------------------------------------||
A||-111--111--111-111-111--111--111-111-111--111--111-111-111--111--111-111-111-111---||
E||-111--111--111-111-111--111--111-111-111--111--111-111-111--111--111-111-111-111---||
B||-111--111--111-111-111--111--111-111-111--111--111-111-111--111--111-111-111-111---||

B||---------------------------------------------------------------------------------||
G||---------------------------------------------------------------------------------||
D||---------------------------------------------------------------------------------||
A||-111--111--111-111-111--111--111-111-111-111-111-111-111-111-111--33333333-------||
E||-111--111--111-111-111--111--111-111-111-111-111-111-111-111-111--33333333-------||
B||-111--111--111-111-111--111--111-111-111-111-111-111-111-111-111--33333333-------||
                                                                   pm---------------||

B||-444-444-444-444-44444444--333-333-333-333-33333333--111-111-111-111-11111111----||
G||-555-555-555-555-55555555--777-777-777-777-77777777--444-444-444-444-44444444----||
D||-666-666-666-666-66666666--333-333-333-333-33333333--333-333-333-333-33333333----||
A||-777-777-777-777-77777777--333-333-333-333-33333333--111-111-111-111-11111111----||
E||-444-444-444-444-66666666--333-333-333-333-33333333--111-111-111-111-11111111----||
B||-444-444-444-444-44444444--333-333-333-333-33333333--111-111-111-111-11111111----||

B||-333-333-333-333-33333333------||
G||-777-777-777-777-77777777------||
D||-333-333-333-333-33333333------||
A||-333-333-333-333-33333333------||
E||-333-333-333-333-33333333------||
B||-333-333-333-333-33333333------||  X2
                  pm--------------||

B||---------------------------------------------------------------------------------------------||
G||---------------------------------------------------------------------------------------------||
D||---------------------------------------------------------------------------------------------||
A||-222--222--222-222-222--222--222-222-222-222-222-222-222-222-222-222-222-222-222-222-222-222-||
E||-222--222--222-222-222--222--222-222-222-222-222-222-222-222-222-222-222-222-222-222-222-222-||
B||-111--111--111-111-111--111--111-111-111-111-111-111-111-111-111-111-111-111-111-111-111-111-||

B||-----------------------------------------------------------------------------------||
G||-----------------------------------------------------------------------------------||
D||-----------------------------------------------------------------------------------||
A||-111--111--111-111-111--111--111-111-111--111--111-111-111--111--111-111-111-111---||
E||-111--111--111-111-111--111--111-111-111--111--111-111-111--111--111-111-111-111---||
B||-111--111--111-111-111--111--111-111-111--111--111-111-111--111--111-111-111-111---||

B||---------------------------------------------------------------------------------||
G||---------------------------------------------------------------------------------||
D||---------------------------------------------------------------------------------||
A||-111--111--111-111-111--111--111-111-111-111-111-111-111-111-111--33333333-------||
E||-111--111--111-111-111--111--111-111-111-111-111-111-111-111-111--33333333-------||
B||-111--111--111-111-111--111--111-111-111-111-111-111-111-111-111--33333333-------||
                                                                   pm---------------||

B||-444-444-444-444-44444444--333-333-333-333-33333333--111-111-111-111-11111111----||
G||-555-555-555-555-55555555--777-777-777-777-77777777--444-444-444-444-44444444----||
D||-666-666-666-666-66666666--333-333-333-333-33333333--333-333-333-333-33333333----||
A||-777-777-777-777-77777777--333-333-333-333-33333333--111-111-111-111-11111111----||
E||-444-444-444-444-66666666--333-333-333-333-33333333--111-111-111-111-11111111----||
B||-444-444-444-444-44444444--333-333-333-333-33333333--111-111-111-111-11111111----||

B||-333-333-333-333-33333333------||
G||-777-777-777-777-77777777------||
D||-333-333-333-333-33333333------||
A||-333-333-333-333-33333333------||
E||-333-333-333-333-33333333------||
B||-333-333-333-333-33333333------||  X2
                  pm--------------||

B||------------------------||
G||------------------------||
D||------------------------||
A||------------------------||
E||------------------------||
D||-5-33-5-33333-2222-66-8-||X8

B||--------------------||
G||---8----------------||
D||----7--7-----3------||
A||--------------3-----||
E||--5---3---1---------||
D||-5---3---1------1\3-||


B||-444-444-444-444-44444444--333-333-333-333-33333333--111-111-111-111-11111111----||
G||-555-555-555-555-55555555--777-777-777-777-77777777--444-444-444-444-44444444----||
D||-666-666-666-666-66666666--333-333-333-333-33333333--333-333-333-333-33333333----||
A||-777-777-777-777-77777777--333-333-333-333-33333333--111-111-111-111-11111111----||
E||-444-444-444-444-66666666--333-333-333-333-33333333--111-111-111-111-11111111----||
B||-444-444-444-444-44444444--333-333-333-333-33333333--111-111-111-111-11111111----||

B||-333-333-333-333-33333333------||
G||-777-777-777-777-77777777------||
D||-333-333-333-333-33333333------||
A||-333-333-333-333-33333333------||
E||-333-333-333-333-33333333------||
B||-333-333-333-333-33333333------||  X2
                  pm--------------||

B||---------------------------------------------------------------------||
G||-55-55-55-55-55555555--33-33-33-33-33333333--44-44-44-44-44444444----||
D||-66-66-66-66-66666666--33-33-33-33-33333333--33-33-33-33-33333333----||
A||-77-77-77-77-77777777--33-33-33-33-33333333--11-11-11-11-11111111----||
E||-44-44-44-44-44444444--33-33-33-33-33333333--11-11-11-11-11111111----||
B||-44-44-44-44-44444444--33-33-33-33-33333333--11-11-11-11-11111111----||

B||-------------------------||
G||-33-33-33-33-33333333----||
D||-33-33-33-33-33333333----||
A||-33-33-33-33-33333333----||
E||-33-33-33-33-33333333----||
B||-33-33-33-33-33333333----|| untill end
              pm------------||

END

_________
_________

Fear Factory - Bite The Hand That Bleeds
Submitted by: dean paul
Email: invisable_wounds@hotmail.com
Tuning: Standard (B E A D G B E)

MAIN
|----------------------------------------------------------------|
|----------<12>--------------------------------------------------|
|----------------<12>--------------------------------------------|
|------------------------------0---------------------------------|
|----------------------------------------------------------------|
|----------------------------------------------------------------|
|-0---------------------3-----------6----3-------3---6---3---6---|

                               ( ) = 2nd Time play this instead
|----------------------------------------------------------------|
|---------------------------------------------------------(0)----|
|--------0-------------------------------------------------0-----|
|-----------0-----------0-------------------------0--------------|
|----------------------------------------------------------------|
|----------------------------------------------------------------|
|-6--------------6------------6---8---------8---------8----------|


POWER MAIN
|---------------------------------------------------------------|
|---------------------------------------------------------------|
|-2-----------------5-------------8----5--------5---8---5---8---|
|-2-----------------5-------------8----5--------5---8---5---8---|
|-0-----------------3-------------6----3--------3---6---3---6---|

|---------------------------------------------------------------|
|--------0------------------------------------------------------|
|-----------0---------------------------------------------------|
|---------------------------------------------------------------|
|-6---------------6-----6------6---8---------8------8------8----|
|-6---------------6-----6------6---8---------8------8------8----|
|-4---------------4-----4------4---6---------6------6------6----|

CHORUS
|----------------------------------------------------|
|-9--------------------------------------------------|
|-9---------------------5----5--------5----2----5----|
|-7---------------------5----5--------5----2----5----|
|-----------------------3----3--------3----0----3----|


|----------------------------------------------------|
|-7--------------------------------------------------|
|-7---------------------3----3--------3----2----3----|
|-5---------------------3----3--------3----2----3----|
|-----------------------1----1--------1----0----1----|


|----------------------------------------------------|
|-9--------------------------------------------------|
|-9---------------------5----5--------5----2----5----|
|-7---------------------5----5--------5----2----5----|
|-----------------------3----3--------3----0----3----|


|----------------------------------------------------|
|-7---------------------10---10-------10---9----10---|
|-7---------------------10---10-------10---9----10---|
|-5---------------------8----8--------8----7----8----|
|----------------------------------------------------|


CHORUS LEAD
|----------------------------------------------------|
|-9---------------------12---12-------12---9----12---|
|----------------------------------------------------|
|-7---------------------10---10-------10---7----10---|
|----------------------------------------------------|


|----------------------------------------------------|
|-7---------------------10---10-------10---9----10---|
|----------------------------------------------------|
|-5----------------------8----8--------8---7-----8---|
|----------------------------------------------------|


MIDDLE
|-----------0----------------------------------------0--------------------0--|
|--------0----------------------------------------0--------------------0-----|
|-----0----------------------------------------0--------------------0--------|
|----------------------------------------------------------------------------|
|----------------------------------------------------------------------------|
|--7----------------------------------------5--------------------8-----------|
|--0-------------------------------------------------------------------------|


|----------0-----------------------------------------------------------------|
|-------0--------------------------------------------------------------------|
|----0-----------------------------------------------------------------------|
|-------------------------------------------7--------------------10----------|
|-------------------------------------------7--------------------10----------|
|-7-----------------------------------------5---------------------8----------|
|-0--------------------------------------------------------------------------|


OUTRO
|------------------0-------------|
|------------0-------------------|
|------0-------------------------|
|--------------------------------|
|--------------------------------|
|-7------------------------------|
|-0------------------------------|

_________
_________

FEAR FACTORY - UNDERCURRENTS
Submitted By: THommoboy

Tuning: B Standard


MAIN
|------------------------------------------------------------------|
|------------------------------------------------------------------|
|-7------------------------------10--------------------------------|
|-7------------------------------10--------------------------------|
|-5------------------------------8---------------------------------|
|------------------------------------------------------------------|


|------------------------------------------------------------------|
|------------------------------------------------------------------|
|--------------------------------13--------------------------------|
|-8------------------------------13--------------------------------|
|-8------------------------------11--------------------------------|
|-6----------------------------------------------------------------|

VERSE
|------------------------------------------------------------------|
|------------------------------------------------------------------|
|---------3-------3---5-------------------3-------3---5------------|
|-2-------1---2---1---3---3---2-------2---1---2---1---3----3-3-3-3-|
|-0-----------0-----------1---0-------0-------0------------1-1-1-1-|
                                                           . . . .


|------------------------------------------------------------------|
|------------------------------------------------------------------|
|---------3-------3---5-------------------3------------------------|
|-2-------1---2---1---3---3---2-------2---1---2----2-3-3-3-2-3-3-3-|
|-0-----------0-----------1---0-------0-------0----0-1-1-1-0-1-1-1-|
                                                   . . . . . . . .


MIDDLE
|------------------------------------------------------------------|
|------------------------------------------------------------------|
|---------3-------3---5-------------------3-------3---5------------|
|-2-------1---2---1---3---3---2-------2---1---2---1---3------------|
|-0-----------0-----------1---0-------0-------0--------------------|

|------------------------------------------------------------------|
|------------------------------------------------------------------|
|---------3-------3---5-------------------3-------3---5------------|
|-2-------1---2---1---3---3---2-------2---1---2---1---3----3-3-3-3-|
|-0-----------0-----------1---0-------0-------0------------1-1-1-1-|
                                                           . . . .
______
______

I'm pretty sure this is mostly accurate.  The only part I'm not really sure of is the
bridge.  There's a lot of weird keyboard and synthesizer stuff that I couldn't figure
out.  Sorry.

Default Judgement
As performed on "Archetype"
Written by Burton C. Bell, Christian Olde Wolbers, and Raymond Herrera

PM    palm muting

Drop D, tune down 1/2 step, whole song with distortion
(low to high): Db Ab Db Gb Bb Eb

Bass intro

Main Riff (x4, do not let chords ring)
eb[------------------------------------|
Bb[------------------------------------|
Gb[------------------------------------|
Db[------------------------------------|
Ab[-0--6-5-0-6-0----0--6-5-0-6-0-6-6---|
Db[-0--6-5-0-6-0----0--6-5-0-6-0-6-6---|

Bass verse

Main Riff

Chorus (x2, all chords are down-stroked)
eb[-----------------------------------------------------------------|
Bb[-----------------------------------------------------------------|
Gb[-----------------------------------------------------------------|
Db[-----------------------------------------------------------------|
Ab[-7-7-7-7-7-7-7-7-3-3-3-3-3-3-3-3-0-0-0-0-0-0-0-0-3-3-3-3-5-5-5-5-|
Db[-7-7-7-7-7-7-7-7-3-3-3-3-3-3-3-3-0-0-0-0-0-0-0-0-3-3-3-3-5-5-5-5-|

eb[------------------------------------------------------------|
Bb[------------------------------------------------------------|
Gb[------------------------------------------------------------|
Db[------------------------------------------------------------|
Ab[-7-7-7-7-7-7-7-7-3-3-3-3-3-3-3-3-0-0-0-0-0-0-0-0---3-----5--|
Db[-7-7-7-7-7-7-7-7-3-3-3-3-3-3-3-3-0-0-0-0-0-0-0-0-0-3-0-3-5--|
                                                   PM  PM..

Main Riff (x8, let chords ring this time)

Bass Verse

Main Riff (x4, do not let chords ring)

Chorus

Bridge pt. 1 (x4)
eb[---------------------------|
Bb[---------------------------|
Gb[---------------------------|
Db[---------7--------7--------|
Ab[---------5--------5--------|
Db[-0--0000----0-0-0---0------|
   PM......   PM....  PM

Bridge pt. 2 (x4)
eb[---------------------------|
Bb[---------------------------|
Gb[---------------------------|
Db[---------6--------6--------|
Ab[---------5--------5--------|
Db[-0--0000----0-0-0---0------|
   PM......   PM....  PM

Bridge pt. 3 (x4)
eb[---------------------------|
Bb[---------------------------|
Gb[---------------------------|
Db[---------------------------|
Ab[---------------------------|
Db[-0--000-0----0--000---0----|
   PM.......   PM....    PM

Play Bridge pts. 1 and 2 again

Chorus (For first measure this time, stum each chord only once)

Breakdown (x4, all chords are down-stroked)
eb[-----------------------------------------------------------------|
Bb[-----------------------------------------------------------------|
Gb[-----------------------------------------------------------------|
Db[-----------------------------------------------------------------|
Ab[-7-7-7-7-7-7-7-7-7-7-7-7-7-7-7-7-3-3-3-3-3-3-3-3-3-3-3-3-3-3-3-3-|
Db[-7-7-7-7-7-7-7-7-7-7-7-7-7-7-7-7-3-3-3-3-3-3-3-3-3-3-3-3-3-3-3-3-|

eb[-----------------------------------------------------------------|
Bb[-----------------------------------------------------------------|
Gb[-----------------------------------------------------------------|
Db[-----------------------------------------------------------------|
Ab[-0-0-0-0-0-0-0-0-0-0-0-0-0-0-0-0-3-3-3-3-3-3-3-3-5-5-5-5-5-5-5-5-|
Db[-0-0-0-0-0-0-0-0-0-0-0-0-0-0-0-0-3-3-3-3-3-3-3-3-5-5-5-5-5-5-5-5-|

Main Riff (x4, let chords ring, except last two chords at the very end)

Song structure:
Bass intro
Main Riff
Bass verse
Main Riff
Bass verse
Main Riff
Chorus
Main Riff
Bass Verse
Main Riff
Chorus
Bridge pt. 1
Bridge pt. 2
Bridge pt. 3
Bridge pts. 1 and 2
Chorus
Breakdown
Main Riff

Peace, God bless

_____
_____

fear factory
bonescraper
tabbed by dean paul
invisable_wounds@hotmail.com.com

m = palm mute
()= let ring


(bass intro)

0: 11
RIFF A
E|----------------------------------------------------------------------------|
B|----------------------------------------------------------------------------|
G|----------------------------------------------------------------------------|
D|----------------------------------------------------------------------------|
A|--------------------5-------5-----------5-------5----5-5--------------------|
E|------------------4-3--4-4--3-4-------4-3--4-4--3-4--3-3--------------------|
B|------------------2----2-2----2-------2----2-2----2-------------------------|
(bass verse)
0: 34 play riff A again
(bass verse)
0: 57 play riff A 3X then RIFF A1:

RIFF A1
E|----------------------------------------------------------------------------|
B|----------------------------------------------------------------------------|
G|----------------------------------------------------------------------------|
D|----------------------------------------------------------------------------|
A|-----------5-------5-----------5--------------------------------------------|
E|---------4-3--4-4--3-4-------4-3--4-4---mmmm-mmmm---------------------------|
B|---------2----2-2----2-------2----2-2---5555-7777---------------------------|

1: 08 chorus RIFF B  X2
E|----------------------------------------------------------------------------|
B|----------------------------------------------------------------------------|
G|----------------------------------------------------------------------------|
D|----------------------------------------------------------------------------|
A|---6-6-6-6-6-6-6-6----------------------------------------------------------|
E|---4-4-4-4-4-4-4-4--7-7-7-7-7-7-7-7--4-4-4-4-4-4-4-4--4/-7-7-7--7-/-9-9-9---|
B|--------------------5-5-5-5-5-5-5-5--2-2-2-2-2-2-2-2--2/-5-5-5--5-/-7-7-7---|

E|---------------------------------------------------------------------------|
B|---------------------------------------------------------------------------|
G|---------------------------------------------------------------------------|
D|---------------------------------------------------------------------------|
A|---6-6-6-6-6-6-6-6---------------------------------------------------------|
E|---4-4-4-4-4-4-4-4--7-7-7-7-7-7-7-7--4-4-4-4-4-4-4-4--m-7--m-m-9-----------|
B|--------------------5-5-5-5-5-5-5-5--2-2-2-2-2-2-2-2--5-5--5-7-7-----------|


1: 31 back to riff A X8
2: 05 riff A 3X then riff A1
2: 15 Chorus

2: 39 RIFF C X2
	all the single notes are palm muted
E|----------------------------|-----------------------------|        -----|
B|----------------------------|-----------------------------|        -----|
G|----------------------------|-----------------------------|        -----|
D|----------------------------|-----------------------------|        --6--|
A|--------4--------4----------|--------4--------4-----------|        --x--| another guitar plays
E|--------x--------x----------|--------x--------x-----------|        --4--| this chord over the C#
B|-2-222--2--2-2-2-2--2-2-222-|-2-222--2--2-2-2-2--222-222--|        -----| on the first time


E|----------------------------|-----------------------------|        -----|
B|----------------------------|-----------------------------|        -----|
G|----------------------------|-----------------------------|        -----|
D|----------------------------|-----------------------------|        --5--|
A|--------4--------4----------|--------4--------4-----------|        --x--| another guitar plays
E|--------x--------x----------|--------x--------x-----------|        --3--| this chord over the C#
B|-2-222--2--2-2-2-2--2-2-222-|-2-222--2--2-2-2-2--33333333-|        -----| on the second time

3: 03 (all pm) X2

E|------------------------|------------------------------|
B|------------------------|------------------------------|
G|------------------------|------------------------------|
D|------------------------|------------------------------|
A|------------------------|------------------------------|
E|------------------------|------------------------------|
B|--2-222-2--2-222-2--222-|-2-222-2--2-222-2--2-222------|

E|------------------------|------------------------------|
B|------------------------|------------------------------|
G|------------------------|------------------------------|
D|------------------------|------------------------------|
A|------------------------|------------------------------|
E|------------------------|------------------------------|
B|--2-222-2--2-222-2--222-|-2-222-2--2-222-2--2-33333333-|

3: 26 RIFF C

3: 49 RIFF D
E|-----------------------------------------|
B|-----------------------------------------|
G|-----------------------------------------|
D|-----------------------------------------|
A|-(6)-------------------------------------|
E|-(4)---(7)---4---4---4/-7-7-7--7/-9-9-9--|
B|-------(5)---2---2---2/-5-5-5--5/-7-7-7--|

E|--------------------------------------------------------------|
B|--------------------------------------------------------------|
G|--------------------------------------------------------------|
D|--------------------------------------------------------------|
A|-6-6-6-6-6-6-6-6----------------------------------------------|
E|-4-4-4-4-4-4-4-4--7-7-7-7-7-7-7-7--4-4-4-4-4-4-4-4--m-7-m-m-9-|
B|------------------5-5-5-5-5-5-5-5--2-2-2-2-2-2-2-2--5-5-5-7-7-|


3: 59 chorus RIFF B only once

4: 10 (not sure of this part because it was tough to hear with the keyboards)
RIFF E X4
E|----------------------------------------------------------------------------|
B|----------------------------------------------------------------------------|
G|----------------------------------------------------------------------------|
D|----------------------------------------------------------------------------|
A|-----6-6-6-6-6-6-6-6-6-6-6-6-6-6-6-6----------------------------------------|
E|-----4-4-4-4-4-4-4-4-4-4-4-4-4-4-4-4--7-7-7-7-7-7-7-7-7--7-7-7-7-7-7-7-7----|
B|--------------------------------------5-5-5-5-5-5-5-5-5--4-4-4-4-4-4-4-4----|


E|----------------------------------------------------------------------------|
B|----------------------------------------------------------------------------|
G|----------------------------------------------------------------------------|
D|----------------------------------------------------------------------------|
A|----------------------------------------------------------------------------|
E|-----4-4-4-4-4-4-4-4-4-4-4-4-4-4-4-4--4/-7-7-7-7-7-7-7-7--7/-9-9-9-9-9-9-9--|
B|-----2-2-2-2-2-2-2-2-2-2-2-2-2-2-2-2--2/-5-5-5-5-5-5-5-5--5/-7-7-7-7-7-7-7--|

4: 56 RIFF A X2

______________________
______________________


Tuning: B E A D F# B

Easy to song, there are some flanger-type effects in the Main Riff when played clean.
to the song for the timing.

Main Riff (Intro/Verse/Bridge)
|-------------------------------------|
|---------3-3-3-3-3--------4-4-4-4----|
|-5-5-5-5-5-5-5-5-5------5-5-5-5-5----|     x3
|-5-5-5-5-5-5-5-5-5--6-6-6-6-6-6-6----|
|-3-3-3-3-3----------3-3-3------------|
|-------------------------------------|

|-------------------------------------|
|---------3-3-3-3-3-------------------|
|-5-5-5-5-5-5-5-5-5-------------------|     x1
|-5-5-5-5-5-5-5-5-5--------8----------|
|-3-3-3-3-3----------6-6-6-6-6-6-6----|
|--------------------4-4-4-4-4-4-4----|


Chorus ("Holding Me Like Your Shield")
|-------------------------------------|
|-------------------------------------|
|-------------------------------------|
|-8-8-8-8-8-8-8-8--6-6-6-6-6-6-6-6----|
|-8-8-8-8-8-8-8-8--6-6-6-6-6-6-6-6----|
|-6-6-6-6-6-6-6-6--4-4-4-4-4-4-4-4----|


Outro
|-------------------------------------|
|-------------------------------------|
|-------------------------------------|
|-8~-------6~--------3~---------------|
|-8~-------6~--------3~---------------|
|-6~-------4~--------1~---------------|


email corrections to concert_junkie@hotmail.com
thanks for listening to great music!

_______________________
_______________________

Tabbed by: martin colclough

so this song is of the new album arch type and its a cover of the nirvana track school.
i no that fear factory use a 7 string but it would apear that this song dosent use one.

Tuning:E standard

e|----------------------------------------------------------------|
B|----------------------------------------------------------------|
G|----------------------------------------------------------------|
D|-------------------------------8--------------------------------|
A|-------------------------------8--------------------------------|
E|-0-0-0--6p0--0--6p0-0-0-0-0-0--6--------------------------------|

e|----------------------------------------------------------------|
B|----------------------------------------------------------------|
G|----------------------------------------------------------------|
D|--8--8-8-8---7777777--------------------------------------------|
A|--8--8-8-8---7777777--------------------------------------------|
E|--6--6-6-6---5555555--------------------------------------------|

e|----------------------------------------------------------------|
B|----------------------------------------------------------------|
G|----------------------------------------------------------------|
D|--2--2-2-2---5555555--------------------------------------------|
A|--2--2-2-2---5555555--------------------------------------------|
E|--0--0-0-0---3333333--------------------------------------------|

this next bit is a small lead bit (if u can call it that)remember its supposed to sound sloppy.

e|--------------------------9-||(each time u play this line move last note up)
B|------------7---8-8--9-9----||
G|-----6-6-6------------------||
D|----------------------------||
A|----------------------------||
E|----------------------------||

e|----------------------------------------------------------------|
B|----------------------------------------------------------------|
G|----------------------------------------------------------------|
D|-----------8--------8------------8------------------------------|
A|-----------8--------8------------8------------------------------|
E|--0--0000--6--0000--6--00000000--6------------------------------|

after the bit above the bass plays the verse alone then u come back in for the
chours to end the song

and thats it nice and simple / i dont no if its the sames as the nivana version
as im not a fan but this is a good song BY (((FF)))

please rate this and check out by damage plan tabs


Finally END
Suggest correction
Give kudos to tab author, rate the tab!
1 2 3 4 5
comments
print report bad tab
1 comment total.
+1 reply
screech n' moan 10 Aug 01, 2013 09:39 PM

Shaweeet, pretty solid all around, except that Archetype song tab. That may sound right, but I know that's not how he plays it in the videos I've seen.

guest
You may want to rate the tab now too:
select rating
Wanna post a correction for this tab? Suggest correction