Oops, an error
Loading. Please wait.

Archetype Tab

version 3
version 3

Whole song

Interactive

3,191 views 6 this week
7 commentsread comments
1 2 3 4 5
x 3
add to favorites
launch autoscroll
font size
0
reset
how to read this tab
guitar tuner
Autoscroll
slow
fast
+/-
esc
set tempo
stop
Help us to improve Ultimate-Guitar.com Take our survey!
×
Author
Difficulty
Tuning
intermediate
B F# B E G# C#
 _____________   ____________
|       ______| |      ______|
|      |        |      |
|      |-----|  |      |-----|
|      |_____|  |      |_____|
|      |        |      |
|      |        |      |
|      |        |      |
|______|   EAR  |______|   ACTORY

Artist: Fear Factory
Album: Archetype
Song: Archetype
Tuning: B,F#,B,E,G#,C#

B||-444-444-444-444-44444444--333-333-333-333-33333333--111-111-111-111-11111111----||
G||-555-555-555-555-55555555--777-777-777-777-77777777--444-444-444-444-44444444----||
D||-666-666-666-666-66666666--333-333-333-333-33333333--333-333-333-333-33333333----||
A||-777-777-777-777-77777777--333-333-333-333-33333333--111-111-111-111-11111111----||
E||-444-444-444-444-66666666--333-333-333-333-33333333--111-111-111-111-11111111----||
B||-444-444-444-444-44444444--333-333-333-333-33333333--111-111-111-111-11111111----||

B||-333-333-333-333-33333333--||
G||-777-777-777-777-77777777--||
D||-333-333-333-333-33333333--||
A||-333-333-333-333-33333333--||
E||-333-333-333-333-33333333--||
B||-333-333-333-333-33333333--||  X2
                  pm--------|

B||-----------------------------------------------------------------------------------||
G||-----------------------------------------------------------------------------------||
D||-----------------------------------------------------------------------------------||
A||-111--111--111-111-111--111--111-111-111--111--111-111-111--111--111-111-111-111---||
E||-111--111--111-111-111--111--111-111-111--111--111-111-111--111--111-111-111-111---||
B||-111--111--111-111-111--111--111-111-111--111--111-111-111--111--111-111-111-111---||
 
B||-------------------------------------------------------------------------------||
G||-------------------------------------------------------------------------------||
D||-------------------------------------------------------------------------------||
A||-111--111--111-111-111--111--111-111-111-111-111-111-111-111-111--33333333-----||
E||-111--111--111-111-111--111--111-111-111-111-111-111-111-111-111--33333333-----||
B||-111--111--111-111-111--111--111-111-111-111-111-111-111-111-111--33333333-----||
                                                                   pm--------

B||-444-444-444-444-44444444--333-333-333-333-33333333--111-111-111-111-11111111----||
G||-555-555-555-555-55555555--777-777-777-777-77777777--444-444-444-444-44444444----||
D||-666-666-666-666-66666666--333-333-333-333-33333333--333-333-333-333-33333333----||
A||-777-777-777-777-77777777--333-333-333-333-33333333--111-111-111-111-11111111----||
E||-444-444-444-444-66666666--333-333-333-333-33333333--111-111-111-111-11111111----||
B||-444-444-444-444-44444444--333-333-333-333-33333333--111-111-111-111-11111111----||

B||-333-333-333-333-33333333--||
G||-777-777-777-777-77777777--||
D||-333-333-333-333-33333333--||
A||-333-333-333-333-33333333--||
E||-333-333-333-333-33333333--||
B||-333-333-333-333-33333333--||  X2
                  pm--------|

B||---------------------------------------------------------------------------------------------||
G||---------------------------------------------------------------------------------------------||
D||---------------------------------------------------------------------------------------------||
A||-222--222--222-222-222--222--222-222-222-222-222-222-222-222-222-222-222-222-222-222-222-222-||
E||-222--222--222-222-222--222--222-222-222-222-222-222-222-222-222-222-222-222-222-222-222-222-||
B||-111--111--111-111-111--111--111-111-111-111-111-111-111-111-111-111-111-111-111-111-111-111-||

B||-----------------------------------------------------------------------------------||
G||-----------------------------------------------------------------------------------||
D||-----------------------------------------------------------------------------------||
A||-111--111--111-111-111--111--111-111-111--111--111-111-111--111--111-111-111-111---||
E||-111--111--111-111-111--111--111-111-111--111--111-111-111--111--111-111-111-111---||
B||-111--111--111-111-111--111--111-111-111--111--111-111-111--111--111-111-111-111---||

B||-------------------------------------------------------------------------------||
G||-------------------------------------------------------------------------------||
D||-------------------------------------------------------------------------------||
A||-111--111--111-111-111--111--111-111-111-111-111-111-111-111-111--33333333-----||
E||-111--111--111-111-111--111--111-111-111-111-111-111-111-111-111--33333333-----||
B||-111--111--111-111-111--111--111-111-111-111-111-111-111-111-111--33333333-----||
                                                                   pm--------
                                                                 
B||-444-444-444-444-44444444--333-333-333-333-33333333--111-111-111-111-11111111----||
G||-555-555-555-555-55555555--777-777-777-777-77777777--444-444-444-444-44444444----||
D||-666-666-666-666-66666666--333-333-333-333-33333333--333-333-333-333-33333333----||
A||-777-777-777-777-77777777--333-333-333-333-33333333--111-111-111-111-11111111----||
E||-444-444-444-444-66666666--333-333-333-333-33333333--111-111-111-111-11111111----||
B||-444-444-444-444-44444444--333-333-333-333-33333333--111-111-111-111-11111111----||

B||-333-333-333-333-33333333--||
G||-777-777-777-777-77777777--||
D||-333-333-333-333-33333333--||
A||-333-333-333-333-33333333--||
E||-333-333-333-333-33333333--||
B||-333-333-333-333-33333333--||  X2
                  pm--------|

B||------------------------||
G||------------------------||
D||------------------------||
A||------------------------||
E||------------------------||
D||-5-33-5-33333-2222-66-8-||X8

B||--------------------||
G||---8----------------||
D||----7--7-----3------||
A||--------------3-----||
E||--5---3---1---------||
D||-5---3---1------1\3-||

                                                                  
B||-444-444-444-444-44444444--333-333-333-333-33333333--111-111-111-111-11111111----||
G||-555-555-555-555-55555555--777-777-777-777-77777777--444-444-444-444-44444444----||
D||-666-666-666-666-66666666--333-333-333-333-33333333--333-333-333-333-33333333----||
A||-777-777-777-777-77777777--333-333-333-333-33333333--111-111-111-111-11111111----||
E||-444-444-444-444-66666666--333-333-333-333-33333333--111-111-111-111-11111111----||
B||-444-444-444-444-44444444--333-333-333-333-33333333--111-111-111-111-11111111----||

B||-333-333-333-333-33333333--||
G||-777-777-777-777-77777777--||
D||-333-333-333-333-33333333--||
A||-333-333-333-333-33333333--||
E||-333-333-333-333-33333333--||
B||-333-333-333-333-33333333--||  X2
                  pm--------|

B||---------------------------------------------------------------------||
G||-55-55-55-55-55555555--33-33-33-33-33333333--44-44-44-44-44444444----||
D||-66-66-66-66-66666666--33-33-33-33-33333333--33-33-33-33-33333333----||
A||-77-77-77-77-77777777--33-33-33-33-33333333--11-11-11-11-11111111----||
E||-44-44-44-44-44444444--33-33-33-33-33333333--11-11-11-11-11111111----||
B||-44-44-44-44-44444444--33-33-33-33-33333333--11-11-11-11-11111111----||
                                                                      
B||-----------------------||
G||-33-33-33-33-33333333--||
D||-33-33-33-33-33333333--||
A||-33-33-33-33-33333333--||
E||-33-33-33-33-33333333--||
B||-33-33-33-33-33333333--|| untill end
              pm--------
Suggest correction
Give kudos to tab author, rate the tab!
1 2 3 4 5
comments
print report bad tab
7 comments total. Showing first comments.
-1 reply
thommoboy 744 Jun 21, 2010 11:20 PM

Great tab did it myself

-1 reply
thommoboy 744 Jun 22, 2010 01:00 AM

myself!!!!!

-1 reply
Washya 676 Jan 08, 2014 01:51 AM

what if you did it this way for those of us who have a 6 string guitar.
Chorus/Intro
D|---------------------------------------------------------------------|
A|---------------------------------------------------------------------|
F|-999-9-99-999-9-999-99-9-999-999-999\777-7-77-777-7-777-77-7-777-777-|
C|-999-9-99-999-9-999-99-9-999-999-999\777-7-77-777-7-777-77-7-777-777-|
G|-777-7-77-777-7-777-77-7-777-777-777\555-5-55-555-5-555-55-5-555-555-|
C|-777-7-77-777-7-777-77-7-777-777-777\555-5-55-555-5-555-55-5-555-555-|

D|---------------------------------------------------------------------|
A|---------------------------------------------------------------------|
F|-555-5-55-555-5-555-55-5-555-555-555/777-7-77-777-7-777-77-7-777-777-|
C|-555-5-55-555-5-555-55-5-555-555-555/777-7-77-777-7-777-77-7-777-777-|
G|-333-3-33-333-3-333-33-3-333-333-333/555-5-55-555-5-555-55-5-555-555-|
C|-333-3-33-333-3-333-33-3-333-333-333/555-5-55-555-5-555-55-5-555-555-|

Verse
D|---------------------------------------|
A|---------------------------------------|
F|---------------------------------------|
C|-111-111-111-111--11-11-111-111-111-11-|
G|-111-111-111-111--11-11-111-111-111-11-|
C|-111-111-111-111--11-11-111-111-111-11-|

guest
You may want to rate the tab now too:
select rating
Wanna post a correction for this tab? Suggest correction