Oops, an error
Loading. Please wait.

Autonomous Combat System tab

version 1
version 1

Whole song

Interactive

510 views 3 this week
1 commentread comment
1 2 3 4 5
x 6
add to favorites
×
Save as Personal and add changes to this tab that will be seen only by you. Learn more ›
×
You can save this tab as Personal to edit and correct it or add notes. All changes will be seen only by you. Learn more »
launch autoscroll
font size
0
reset
how to read this tab
guitar tuner
edit
Autoscroll
slow
fast
+/-
esc
set tempo
stop
Author
Difficulty
|--------------------------------------------------------------------------------------------------------|
|                                   FEAR FACTORY - AUTONOMOUS COMBAT SYSTEM                              |
|                                           Album: Genexus (2015)                                        |
|                                             Tab by Godspeedy                                           |
|--------------------------------------------------------------------------------------------------------|

                   If you have questions or corrections feel free to send me a message:
                                    https://www.facebook.com/Godspeedy14
                     
                 Also check out my Youtube channel: http://www.youtube.com/user/Godspeedy14

                        *************************************************************
                        * NOTE: If you need a playthrough, check out my cover here: *
                        *       https://www.youtube.com/watch?v=zKdzcgRykBY         *
                        *************************************************************

                                        Tuning: 7 strings ADGCFAD 
                                                    
*********************************************GUITAR NOTATIONS*********************************************
*                                                                                                        *
*                                      | *   palm mute           |                                       *
*                                      | x   muted note          |                                       *
*                                      | П   downstroke          |                                       *
*                                      | V   upstroke            |                                       *
*                                                                                                        *
**********************************************************************************************************

|--------------------------------------------------------------------------------------------------------|
|                                          INTRO (00:00-01:28)                                           |
|--------------------------------------------------------------------------------------------------------|

Guitars 1 and 2 (w/ dist)

   П               П       П       П               П        П
D|-------|-------|-------|-------|-------|-------|--------|--------|
A|-------|-------|-------|-------|-------|-------|--------|--------|
F|-------|-------|-------|-------|-------|-------|--------|--------| x2
C|-------|-------|-4-----|-7-----|-6-----|-------|-7------|-4------|
G|-------|-------|-x-----|-x-----|-x-----|-------|-x------|-x------|
D|-2-----|-------|-2-----|-5-----|-4-----|-------|-5------|-2------|
A|-0-----|-------|-------|-------|-------|-------|--------|--------|

   П V П V П  П V П V П  П  П      П V П V П  П V П V П
D|----------------------------|-----------------------------|
A|----------------------------|-----------------------------|
F|----------------------------|-----------------------------| x2
C|----------------------------|-----------------------------|
G|----------------------------|-----------------------------|
D|----------------------------|-----------------------------|
A|-3-3-3-3-3--3-3-3-3-3--3--3-|----3-3-3-3-3--3-3-3-3-3-----|
   * * * * *  * * * * *  *  *      * * * * *  * * * * *

   П V П V П  П V П V П  П  П   П  П V П V П  П V П V П  П
D|----------------------------|----------------------------|
A|----------------------------|----------------------------|
F|----------------------------|----------------------------|
C|----------------------------|----------------------------|
G|----------------------------|----------------------------|
D|----------------------------|----------------------------|
A|-3-3-3-3-3--3-3-3-3-3--3--3-|-3--3-3-3-3-3--3-3-3-3-3--3-|
   * * * * *  * * * * *  *  *   *  * * * * *  * * * * *  *

   П V П V П  П V П V П  П  П   П  П V П V П  П
D|----------------------------|-----------------------|
A|----------------------------|-----------------------|
F|----------------------------|-----------------------|
C|----------------------------|-----------------------|
G|----------------------------|-----------------------|
D|----------------------------|-----------------------|
A|-3-3-3-3-3--3-3-3-3-3--3--3-|-3--3-3-3-3-3--3-------|
   * * * * *  * * * * *  *  *   *  * * * * *  *

   П V П V П  П V П V П  П  П   П  П V П V П  П V П V П  П
D|----------------------------|----------------------------|
A|----------------------------|----------------------------|
F|----------------------------|----------------------------| x3
C|----------------------------|----------------------------|
G|----------------------------|----------------------------|
D|----------------------------|----------------------------|
A|-3-3-3-3-3--3-3-3-3-3--3--3-|-3--3-3-3-3-3--3-3-3-3-3--3-|
   * * * * *  * * * * *  *  *   *  * * * * *  * * * * *  *

   П V П V П  П V П V П  П  П   П  П V П V П  П V П V П
D|----------------------------|----------------------------|
A|----------------------------|----------------------------|
F|----------------------------|----------------------------|
C|----------------------------|----------------------------|
G|----------------------------|----------------------------|
D|----------------------------|----------------------------|
A|-3-3-3-3-3--3-3-3-3-3--3--3-|-3--3-3-3-3-3--3-3-3-3-3----|
   * * * * *  * * * * *  *  *   *  * * * * *  * * * * *

   П V П V П  П V П V П  П  П   П  П V П V П  П V П V П  П
D|----------------------------|----------------------------|
A|----------------------------|----------------------------|
F|----------------------------|----------------------------| x3
C|----------------------------|----------------------------|
G|----------------------------|----------------------------|
D|----------------------------|----------------------------|
A|-3-3-3-3-3--3-3-3-3-3--3--3-|-3--3-3-3-3-3--3-3-3-3-3--3-|
   * * * * *  * * * * *  *  *   *  * * * * *  * * * * *  *

   П V П V П  П V П V П  П  П   П  П V П V П  П
D|----------------------------|-----------------------|
A|----------------------------|-----------------------|
F|----------------------------|-----------------------|
C|----------------------------|-----------------------|
G|----------------------------|-----------------------|
D|----------------------------|-----------------------|
A|-3-3-3-3-3--3-3-3-3-3--3--3-|-3--3-3-3-3-3--3-------|
   * * * * *  * * * * *  *  *   *  * * * * *  *

|--------------------------------------------------------------------------------------------------------|
|                                          VERSE (01:28-01:49)                                           |
|--------------------------------------------------------------------------------------------------------|

Guitars 1 and 2 (w/ dist)

   П V П V П  П V П V П  П  П      П V П V П  П V П V П
D|----------------------------|----------------------------|
A|----------------------------|----------------------------|
F|----------------------------|----------------------------|
C|----------------------------|----------------------------|
G|----------------------------|----------------------------|
D|----------------------------|----------------------------|
A|-2-2-2-2-2--2-2-2-2-2--2--2-|----2-2-2-2-2--2-2-2-2-2----|
   * * * * *  * * * * *  *  *      * * * * *  * * * * *

   П V П V П  П V П V П  П  П      П V П V П  П V П V П  П
D|----------------------------|----------------------------|
A|----------------------------|----------------------------|
F|----------------------------|----------------------------|
C|----------------------------|----------------------------|
G|----------------------------|----------------------------|
D|----------------------------|----------------------------|
A|-2-2-2-2-2--2-2-2-2-2--2--2-|----2-2-2-2-2--2-2-2-2-2--2-|
   * * * * *  * * * * *  *  *      * * * * *  * * * * *  *

   П V П V П  П V П V П  П  П      П V П V П  П V П V П
D|----------------------------|----------------------------|
A|----------------------------|----------------------------|
F|----------------------------|----------------------------|
C|----------------------------|----------------------------|
G|----------------------------|----------------------------|
D|----------------------------|----------------------------|
A|-2-2-2-2-2--2-2-2-2-2--2--2-|----2-2-2-2-2--2-2-2-2-2----|
   * * * * *  * * * * *  *  *      * * * * *  * * * * *

   П V П V П  П V П V П  П  П      П V П V П  П V П V П
D|----------------------------|----------------------------|
A|----------------------------|----------------------------|
F|----------------------------|----------------------------|
C|----------------------------|----------------------------|
G|----------------------------|----------------------------|
D|----------------------------|----------------------------|
A|-2-2-2-2-2--2-2-2-2-2--2--2-|----2-2-2-2-2--2-2-2-2-2----|
   * * * * *  * * * * *  *  *      * * * * *  * * * * *

   П V П V П  П V П V П  П  П   П  П V П V П  П V П V П  П
D|----------------------------|----------------------------|
A|----------------------------|----------------------------|
F|----------------------------|----------------------------| x3
C|----------------------------|----------------------------|
G|----------------------------|----------------------------|
D|----------------------------|----------------------------|
A|-2-2-2-2-2--2-2-2-2-2--2--2-|-2--2-2-2-2-2--2-2-2-2-2--2-|
   * * * * *  * * * * *  *  *   *  * * * * *  * * * * *  *

   П V П V П  П V П V П  П V П V   П  П V П V П  П V П  П V П
D|-------------------------------|----------------------------|
A|-------------------------------|----------------------------|
F|-------------------------------|----------------------------|
C|-------------------------------|----------------------------|
G|-------------------------------|----------------------------|
D|-------------------------------|----------------------------|
A|-3-3-3-3-3--3-3-3-3-3--4-4-4-4-|-4--4-4-4-4-4--6-6-6--6-6-6-|
   * * * * *  * * * * *  * * * *   *  * * * * *  * * *  * * *

|--------------------------------------------------------------------------------------------------------|
|                                        PRE-CHORUS (01:49-02:01)                                        |
|--------------------------------------------------------------------------------------------------------|

Guitars 1 and 2 (w/ dist)

   П  V  П  П  V  П  П V П V   П V П V П  П  П  V  П
D|---------------------------|-------------------------|
A|---------------------------|-------------------------|
F|---------------------------|-------------------------| x3
C|---------------------------|-------------------------|
G|---------------------------|-------------------------|
D|---------------------------|-------------------------|
A|-4--3--3--4--3--3--3-3-3-3-|-3-3-3-3-4--3--3--4--6---|
         *        *  * * * *   * * * *    *

   П  V  П  П  V  П  П V П V   П V П V П  П  П  П  П
D|---------------------------|-------------------------|
A|---------------------------|-------------------------|
F|---------------------------|-------------------------|
C|---------------------------|-------------------------|
G|---------------------------|-------------------------|
D|---------------------------|---------------5--6--8---|
A|-4--3--3--4--3--3--3-3-3-3-|-3-3-3-3-4--3--3--4--6---|
         *        *  * * * *   * * * *    *

|--------------------------------------------------------------------------------------------------------|
|                                         VERSE 2 (02:01-02:22)                                          |
|--------------------------------------------------------------------------------------------------------|

Guitars 1 and 2 (w/ dist)

   П V П V П  П V П V П  П  П      П V П V П  П V П V П
D|----------------------------|----------------------------|
A|----------------------------|----------------------------|
F|----------------------------|----------------------------|
C|----------------------------|----------------------------|
G|----------------------------|----------------------------|
D|----------------------------|----------------------------|
A|-2-2-2-2-2--2-2-2-2-2--2--2-|----2-2-2-2-2--2-2-2-2-2----|
   * * * * *  * * * * *  *  *      * * * * *  * * * * *

   П V П V П  П V П V П  П  П      П V П V П  П V П V П  П
D|----------------------------|----------------------------|
A|----------------------------|----------------------------|
F|----------------------------|----------------------------|
C|----------------------------|----------------------------|
G|----------------------------|----------------------------|
D|----------------------------|----------------------------|
A|-2-2-2-2-2--2-2-2-2-2--2--2-|----2-2-2-2-2--2-2-2-2-2--2-|
   * * * * *  * * * * *  *  *      * * * * *  * * * * *  *

   П V П V П  П V П V П  П  П      П V П V П  П V П V П
D|----------------------------|----------------------------|
A|----------------------------|----------------------------|
F|----------------------------|----------------------------|
C|----------------------------|----------------------------|
G|----------------------------|----------------------------|
D|----------------------------|----------------------------|
A|-2-2-2-2-2--2-2-2-2-2--2--2-|----2-2-2-2-2--2-2-2-2-2----|
   * * * * *  * * * * *  *  *      * * * * *  * * * * *

   П V П V П  П V П V П  П  П      П V П V П  П V П V П
D|----------------------------|----------------------------|
A|----------------------------|----------------------------|
F|----------------------------|----------------------------|
C|----------------------------|----------------------------|
G|----------------------------|----------------------------|
D|----------------------------|----------------------------|
A|-2-2-2-2-2--2-2-2-2-2--2--2-|----2-2-2-2-2--2-2-2-2-2----|
   * * * * *  * * * * *  *  *      * * * * *  * * * * *

   П V П V П  П V П V П  П  П   П  П V П V П  П V П V П  П
D|----------------------------|----------------------------|
A|----------------------------|----------------------------|
F|----------------------------|----------------------------| x3
C|----------------------------|----------------------------|
G|----------------------------|----------------------------|
D|----------------------------|----------------------------|
A|-2-2-2-2-2--2-2-2-2-2--2--2-|-2--2-2-2-2-2--2-2-2-2-2--2-|
   * * * * *  * * * * *  *  *   *  * * * * *  * * * * *  *

   П V П V П  П V П V П  П V П V   П  П V П V П  П
D|-------------------------------|-------------------------|
A|-------------------------------|-------------------------|
F|-------------------------------|-------------------------|
C|-------------------------------|-------------------------|
G|-------------------------------|-------------------------|
D|-------------------------------|-------------------------|
A|-3-3-3-3-3--3-3-3-3-3--4-4-4-4-|-4--4-4-4-4-4--6---------|
   * * * * *  * * * * *  * * * *   *  * * * * *  *

|--------------------------------------------------------------------------------------------------------|
|                                          CHORUS (02:22-02:56)                                          |
|--------------------------------------------------------------------------------------------------------|

Guitars 1 and 2 (w/ dist)

   П  П  П  П  П  П  П  П   П  П  П  П  П V П V П V П V 
D|------------------------|-----------------------------|
A|------------------------|-----------------------------|
F|------------------------|-----------------------------|
C|------------------------|-----------------------------|
G|------------------------|-----------------------------|
D|-2--------2--------2----|----2--------0-0-0-0-0-0-0-0-|
A|-0--0--0--0--0--0--0--0-|-0--0--0--0------------------|
      *  *     *  *     *   *     *  *  * * * * * * * *

   П  П  П  П  П  П  П  П   П  П  П  П  П  П  П  П
D|------------------------|------------------------|
A|------------------------|------------------------|
F|------------------------|------------------------|
C|------------------------|-------------2-----6----|
G|-4--------4--------4----|----4--------0--0--4--0-|
D|-2--2--2--2--2--2--2--2-|-2--2--2--2-------------|
A|------------------------|------------------------|
      *  *     *  *     *   *     *  *     *     *

   П  П V П  П  П V П  П  П V   П  П  П V П  П  П  П  П
D|----------------------------|-------------------------|
A|----------------------------|-------------------------|
F|----------------------------|-------------------------|
C|----------------------------|-------------------------|
G|-9---------9---------9------|----9---------9-----9----|
D|-7--7-7-7--7--7-7-7--7--7-7-|-7--7--7-7-7--7--7--7--7-|
A|----------------------------|-------------------------|
      * * *     * * * *   * *   *     * * *     *     *

   П V П V П V П V П V П V П V П V   П V П V П V П V П V П V П V П V 
D|---------------------------------|---------------------------------|
A|---------------------------------|---------------------------------|
F|---------------------------------|---------------------------------|
C|---------------------------------|---------------------------------|
G|-------------7-7-7-7-7-7-9-9-9-9-|-------------5-5-5-5-5-5-7-7-7-7-|
D|---------------------------------|---------------------------------|
A|-5-5-5-5-5-5---------------------|-3-3-3-3-3-3---------------------|

   П  П  П  П  П  П  П  П   П  П  П  П  П V П V П V П V 
D|------------------------|-----------------------------|
A|------------------------|-----------------------------|
F|------------------------|-----------------------------|
C|------------------------|-----------------------------|
G|------------------------|-----------------------------|
D|-2--------2--------2----|----2--------0-0-0-0-0-0-0-0-|
A|-0--0--0--0--0--0--0--0-|-0--0--0--0------------------|
      *  *     *  *     *   *     *  *  * * * * * * * *

   П  П  П  П  П  П  П  П   П  П  П  П  П  П  П  П
D|------------------------|------------------------|
A|------------------------|------------------------|
F|------------------------|------------------------|
C|------------------------|-------------2-----6----|
G|-4--------4--------4----|----4--------0--0--4--0-|
D|-2--2--2--2--2--2--2--2-|-2--2--2--2-------------|
A|------------------------|------------------------|
      *  *     *  *     *   *     *  *     *     *

   П  П V П  П  П V П  П  П V   П  П  П V П  П  П  П  П
D|----------------------------|-------------------------|
A|----------------------------|-------------------------|
F|----------------------------|-------------------------|
C|----------------------------|-------------------------|
G|----------------------------|-------------------------|
D|-7---------7---------7------|----7---------7-----7----|
A|-5--5-5-5--5--5-5-5--5--5-5-|-5--5--5-5-5--5--5--5--5-|
      * * *     * * *     * *   *     * * *     *     *

   П V П V П V П V П V П V П V П V   П V П V П V П V П V П V П V П V 
D|---------------------------------|---------------------------------|
A|---------------------------------|---------------------------------|
F|---------------------------------|---------------------------------|
C|---------------------------------|---------------------------------|
G|-------------7-7-7-7-7-7-9-9-9-9-|-------------5-5-5-5-5-5-7-7-7-7-|
D|---------------------------------|---------------------------------|
A|-5-5-5-5-5-5---------------------|-3-3-3-3-3-3---------------------|\
                                                                       x2
   П V П V П V П V П V П V П V П V   П V П V П V П V П V П V П V П V  /
D|---------------------------------|---------------------------------|
A|---------------------------------|---------------------------------|
F|---------------------------------|---------------------------------|
C|---------------------------------|---------------------------------|
G|-------------4-4-4-4-4-4-5-5-5-5-|-------------5-5-5-5-5-5-7-7-7-7-|
D|---------------------------------|---------------------------------|
A|-2-2-2-2-2-2---------------------|-3-3-3-3-3-3---------------------|

   П V П V П V П V П V П V П V П V   П V П V П V П V П V П V П V П V
D|---------------------------------|---------------------------------|
A|---------------------------------|---------------------------------|
F|---------------------------------|---------------------------------|
C|---------------------------------|---------------------------------|
G|---------------------------------|---------------------------------|
D|-0-0-0-0-0-0-0-0-0-0-0-0-0-0-0-0-|-2-2-2-2-2-2-2-2-2-2-2-2-2-2-2-2-|
A|---------------------------------|---------------------------------|

   П V П V П V П V П V П V П V П V   П V П V П V П V П V П V П V П V
D|---------------------------------|---------------------------------|
A|---------------------------------|---------------------------------|
F|---------------------------------|---------------------------------|
C|---------------------------------|---------------------------------|
G|---------------------------------|---------------------------------|
D|-3-3-3-3-3-3-3-3-3-3-3-3-3-3-3-3-|-5-5-5-5-5-5-5-5-5-5-5-5-5-5-5-5-|
A|---------------------------------|---------------------------------|

|--------------------------------------------------------------------------------------------------------|
|                                          BRIDGE (02:56-04:00)                                          |
|--------------------------------------------------------------------------------------------------------|

Guitars 1 and 2 (w/ dist)

   П  П  П  П  П  П  П  П   П  П  П  П  П  П  V  П   П  П  П  П  П  П  П  П   П  П  П  П  П  П  V  П --|
D|------------------------|------------------------|------------------------|------------------------| |
A|------------------------|------------------------|------------------------|------------------------| |
F|------------------------|------------------------|------------------------|------------------------| |
C|------------------------|------------------------|------------------------|------------------------| |
G|------------------------|------------------------|------------------------|------------------------| |
D|------------------------|------------------------|------------------------|------------------------| |
A|-5--2--4--2--4--2--2--5-|-2--4--2--4--2--2--4--2-|-5--2--4--2--4--2--2--5-|-2--2--2--2--2--2--4--2-| |
      *     *     *  *      *     *     *               *     *     *  *      *     *     *            |
                                                                                                       |x2
   П  П  П  П  П  П  П  П   П  П  П  П  П  П  V  П   П  П  П  П  П  П  П  П   П  П  П  П               |
D|------------------------|------------------------|------------------------|------------------------| |
A|------------------------|------------------------|------------------------|------------------------| |
F|------------------------|------------------------|------------------------|------------------------| |
C|------------------------|------------------------|------------------------|------------------------| |
G|------------------------|------------------------|------------------------|------------------------| |
D|------------------------|------------------------|------------------------|------------------------| |
A|-5--2--4--2--4--2--2--5-|-2--4--2--4--2--2--4--2-|-5--2--4--2--4--2--2--5-|-2--2--2--2-------------| |
      *     *     *  *      *     *     *               *     *     *  *      *     *      ------------|

   П  П  П  П  П  П  П  П   П  П  П  П  П  П  V  П   П  П  П  П  П  П  П  П   П  П  П  П  П  П  V  П   
D|------------------------|------------------------|------------------------|------------------------|
A|------------------------|------------------------|------------------------|------------------------|
F|------------------------|------------------------|------------------------|------------------------|
C|------------------------|------------------------|------------------------|------------------------|
G|------------------------|------------------------|------------------------|------------------------|
D|------------------------|------------------------|------------------------|------------------------|
A|-5--2--4--2--4--2--2--5-|-2--4--2--4--2--2--4--2-|-5--2--4--2--4--2--2--5-|-2--2--2--2--2--2--4--2-|
      *     *     *  *      *     *     *               *     *     *  *      *     *     * 
         
   П  П  П  П  П  П  П  П   П  П  П  П  П  П  V  П   П  П  П  П  П  П  П  П   П  П  П  П  П  П  П  П
D|------------------------|------------------------|------------------------|------------------------|
A|------------------------|------------------------|------------------------|------------------------|
F|------------------------|------------------------|------------------------|------------------------|
C|------------------------|------------------------|------------------------|------------------------|
G|------------------------|------------------------|------------------------|------------------------|
D|------------------------|------------------------|------------------------|----------------4--6--2-|
A|-5--2--4--2--4--2--2--5-|-2--4--2--4--2--2--4--2-|-5--2--4--2--4--2--2--5-|-2--2--2--2--2--2--4--2-|
      *     *     *  *      *     *     *               *     *     *  *      *     *

   П   П     П   П  П     П     П   П  П  П ---------|
D|--------------------|---------------------|        |
A|--------------------|---------------------|        |
F|--------------------|---------------------|        |
C|--------------------|---------------------|        |
G|--------------------|---------------------|        |
D|-7---6-----6---4--7-|---6-----6---4--6--4-|        |
A|-5---4-----4---2--5-|---4-----4---2--4--2-|        |
                                                     |
   П   П     П   П  П     П     П   П V П V П V      |
D|--------------------|-------------------------|    |
A|--------------------|-------------------------|    |
F|--------------------|-------------------------|    |
C|--------------------|-------------------------|    |
G|--------------------|-------------------------|    |
D|-7---6-----6---4--7-|---4-----4---------------|    |
A|-5---4-----4---2--5-|---2-----2---2-2-2-2-2-2-|    |
                                    * * * * * *      |
                                                     | x2
   П   П     П   П  П     П     П   П  П  П          |
D|--------------------|---------------------|        |
A|--------------------|---------------------|        |
F|--------------------|---------------------|        |
C|--------------------|---------------------|        |
G|--------------------|---------------------|        |
D|-7---6-----6---4--7-|---6-----6---4--6--4-|        |
A|-5---4-----4---2--5-|---4-----4---2--4--2-|        |
                                                     |
   П   П     П   П  П     П     П   П  П  П          |
D|--------------------|---------------------|        |
A|--------------------|---------------------|        |
F|--------------------|---------------------|        |
C|--------------------|---------------------|        |
G|--------------------|---------------------|        |
D|-7---6-----6---4--7-|---4-----4---4--6--4-|        |
A|-5---4-----4---2--5-|---2-----2---2--4--2-|        |
                                           ----------|

   П V П V П  П V П V П  П  П   П  П V П V П  П V П V П  П
D|----------------------------|----------------------------|
A|----------------------------|----------------------------|
F|----------------------------|----------------------------| x3
C|----------------------------|----------------------------|
G|----------------------------|----------------------------|
D|----------------------------|----------------------------|
A|-3-3-3-3-3--3-3-3-3-3--3--3-|-3--3-3-3-3-3--3-3-3-3-3--3-|
   * * * * *  * * * * *  *  *   *  * * * * *  * * * * *  *

   П V П V П  П V П V П  П  П   П  П V П V П  П
D|----------------------------|-----------------------|
A|----------------------------|-----------------------|
F|----------------------------|-----------------------|
C|----------------------------|-----------------------|
G|----------------------------|-----------------------|
D|----------------------------|-----------------------|
A|-3-3-3-3-3--3-3-3-3-3--3--3-|-3--3-3-3-3-3--3-------|
   * * * * *  * * * * *  *  *   *  * * * * *  *

|--------------------------------------------------------------------------------------------------------|
|                                         CHORUS 2 (04:00-05:05)                                         |
|--------------------------------------------------------------------------------------------------------|

I. Guitars 1 and 2 (w/ dist) - Fade in

   П  П  П  П  П  П  П  П   П  П  П  П  П V П V П V П V 
D|------------------------|-----------------------------|
A|------------------------|-----------------------------|
F|------------------------|-----------------------------|
C|------------------------|-----------------------------|
G|------------------------|-----------------------------|
D|-2--------2--------2----|----2--------0-0-0-0-0-0-0-0-|
A|-0--0--0--0--0--0--0--0-|-0--0--0--0------------------|
      *  *     *  *     *   *     *  *  * * * * * * * *

   П  П  П  П  П  П  П  П   П  П  П  П  П  П  П  П
D|------------------------|------------------------|
A|------------------------|------------------------|
F|------------------------|------------------------|
C|------------------------|-------------2-----6----|
G|-4--------4--------4----|----4--------0--0--4--0-|
D|-2--2--2--2--2--2--2--2-|-2--2--2--2-------------|
A|------------------------|------------------------|
      *  *     *  *     *   *     *  *     *     *

   П  П V П  П  П V П  П  П V   П  П  П V П  П  П  П  П
D|----------------------------|-------------------------|
A|----------------------------|-------------------------|
F|----------------------------|-------------------------|
C|----------------------------|-------------------------|
G|-9---------9---------9------|----9---------9-----9----|
D|-7--7-7-7--7--7-7-7--7--7-7-|-7--7--7-7-7--7--7--7--7-|
A|----------------------------|-------------------------|
      * * *     * * * *   * *   *     * * *     *     *

   П V П V П V П V П V П V П V П V   П V П V П V П V П
D|---------------------------------|---------------------------------|
A|---------------------------------|---------------------------------|
F|---------------------------------|---------------------------------|
C|---------------------------------|---------------------------------|
G|-------------7-7-7-7-7-7-9-9-9-9-|---------------------------------|
D|---------------------------------|---------------------------------|
A|-5-5-5-5-5-5---------------------|-3-3-3-3-3-3-3-3-3---------------|

II. Guitars 1 and 2 (w/ dist)

   П  П  П  П  П  П  П  П   П  П  П  П  П V П V П V П V --------------------|
D|------------------------|-----------------------------|                   |
A|------------------------|-----------------------------|                   |
F|------------------------|-----------------------------|                   |
C|------------------------|-----------------------------|                   |
G|------------------------|-----------------------------|                   |
D|-2--------2--------2----|----2--------0-0-0-0-0-0-0-0-|                   |
A|-0--0--0--0--0--0--0--0-|-0--0--0--0------------------|                   |
      *  *     *  *     *   *     *  *  * * * * * * * *                     |
                                                                            |
   П  П  П  П  П  П  П  П   П  П  П  П  П  П  П  П                          |
D|------------------------|------------------------|                        |
A|------------------------|------------------------|                        |
F|------------------------|------------------------|                        |
C|------------------------|-------------2-----6----|                        |
G|-4--------4--------4----|----4--------0--0--4--0-|                        |
D|-2--2--2--2--2--2--2--2-|-2--2--2--2-------------|                        |
A|------------------------|------------------------|                        |
      *  *     *  *     *   *     *  *     *     *                          |
                                                                            |
   П  П V П  П  П V П  П  П V   П  П  П V П  П  П  П  П                     |
D|----------------------------|-------------------------|                   |
A|----------------------------|-------------------------|                   |
F|----------------------------|-------------------------|                   |
C|----------------------------|-------------------------|                   |
G|-9---------9---------9------|----9---------9-----9----|                   |
D|-7--7-7-7--7--7-7-7--7--7-7-|-7--7--7-7-7--7--7--7--7-|                   |
A|----------------------------|-------------------------|                   |
      * * *     * * * *   * *   *     * * *     *     *                     |
                                                                            |
   П V П V П V П V П V П V П V П V   П V П V П V П V П V П V П V П V        |
D|---------------------------------|---------------------------------|      |
A|---------------------------------|---------------------------------|      |
F|---------------------------------|---------------------------------|      |
C|---------------------------------|---------------------------------|      |
G|-------------7-7-7-7-7-7-9-9-9-9-|-------------5-5-5-5-5-5-7-7-7-7-|      |
D|---------------------------------|---------------------------------|      |
A|-5-5-5-5-5-5---------------------|-3-3-3-3-3-3---------------------|      |
                                                                            | x2
   П  П  П  П  П  П  П  П   П  П  П  П  П V П V П V П V                     |
D|------------------------|-----------------------------|                   |
A|------------------------|-----------------------------|                   |
F|------------------------|-----------------------------|                   |
C|------------------------|-----------------------------|                   |
G|------------------------|-----------------------------|                   |
D|-2--------2--------2----|----2--------0-0-0-0-0-0-0-0-|                   |
A|-0--0--0--0--0--0--0--0-|-0--0--0--0------------------|                   |
      *  *     *  *     *   *     *  *  * * * * * * * *                     |
                                                                            |
   П  П  П  П  П  П  П  П   П  П  П  П  П  П  П  П                          |
D|------------------------|------------------------|                        |
A|------------------------|------------------------|                        |
F|------------------------|------------------------|                        |
C|------------------------|-------------2-----6----|                        |
G|-4--------4--------4----|----4--------0--0--4--0-|                        |
D|-2--2--2--2--2--2--2--2-|-2--2--2--2-------------|                        |
A|------------------------|------------------------|                        |
      *  *     *  *     *   *     *  *     *     *                          |
                                                                            |
   П  П V П  П  П V П  П  П V   П  П  П V П  П  П  П  П                     |
D|----------------------------|-------------------------|                   |
A|----------------------------|-------------------------|                   |
F|----------------------------|-------------------------|                   |
C|----------------------------|-------------------------|                   |
G|----------------------------|-------------------------|                   |
D|-7---------7---------7------|----7---------7-----7----|                   |
A|-5--5-5-5--5--5-5-5--5--5-5-|-5--5--5-5-5--5--5--5--5-|                   |
      * * *     * * *     * *   *     * * *     *     *                     |
                                                                            |
   П V П V П V П V П V П V П V П V   П V П V П V П V П V П V П V П V        |
D|---------------------------------|---------------------------------|      |
A|---------------------------------|---------------------------------|      |
F|---------------------------------|---------------------------------|      |
C|---------------------------------|---------------------------------|      |
G|-------------7-7-7-7-7-7-9-9-9-9-|-------------5-5-5-5-5-5-7-7-7-7-|      |
D|---------------------------------|---------------------------------|      |
A|-5-5-5-5-5-5---------------------|-3-3-3-3-3-3---------------------|      |
                                                                   ---------|

   П V П V П V П V П V П V П V П V   П V П V П V П V П V П V П V П V
D|---------------------------------|---------------------------------|
A|---------------------------------|---------------------------------|
F|---------------------------------|---------------------------------|
C|---------------------------------|---------------------------------|
G|-------------4-4-4-4-4-4-5-5-5-5-|-------------5-5-5-5-5-5-7-7-7-7-|
D|---------------------------------|---------------------------------|
A|-2-2-2-2-2-2---------------------|-3-3-3-3-3-3---------------------|

   П V П V П V П V П V П V П V П V   П V П V П V П V П V П V П V П V
D|---------------------------------|---------------------------------|
A|---------------------------------|---------------------------------|
F|---------------------------------|---------------------------------|
C|---------------------------------|---------------------------------|
G|-------------7-7-7-7-7-7-9-9-9-9-|-------------5-5-5-5-5-5-7-7-7-7-|
D|---------------------------------|---------------------------------|
A|-5-5-5-5-5-5---------------------|-3-3-3-3-3-3---------------------|

   П V П V П V П V П V П V П V П V   П V П V П V П V П V П V П V П V
D|---------------------------------|---------------------------------|
A|---------------------------------|---------------------------------|
F|---------------------------------|---------------------------------|
C|---------------------------------|---------------------------------|
G|-------------4-4-4-4-4-4-5-5-5-5-|-------------5-5-5-5-5-5-7-7-7-7-|
D|---------------------------------|---------------------------------|
A|-2-2-2-2-2-2---------------------|-3-3-3-3-3-3---------------------|

   П V П V П V П V П V П V П V П V   П V П V П V П V П V П V П V П V
D|---------------------------------|---------------------------------|
A|---------------------------------|---------------------------------|
F|---------------------------------|---------------------------------|
C|---------------------------------|---------------------------------|
G|---------------------------------|---------------------------------|
D|-0-0-0-0-0-0-0-0-0-0-0-0-0-0-0-0-|-2-2-2-2-2-2-2-2-2-2-2-2-2-2-2-2-|
A|---------------------------------|---------------------------------|

   П V П V П V П V П V П V П V П V   П V П V П V П V П  П V П  П
D|---------------------------------|------------------------------|
A|---------------------------------|------------------------------|
F|---------------------------------|------------------------------|
C|---------------------------------|------------------------------|
G|---------------------------------|------------------------------|
D|-3-3-3-3-3-3-3-3-3-3-3-3-3-3-3-3-|-5-5-5-5-5-5-5-5-5--5-5-5--5--|
A|---------------------------------|------------------------------|
                                                     *  * * *  *

|--------------------------------------------------------------------------------------------------------|
|                                          OUTRO (05:05-05:28)                                           |
|--------------------------------------------------------------------------------------------------------|

Guitars 1 and 2 (w/ dist)

   П   П V П V П  П   П   П   П V П V П  П   П -------------|
D|----------------------|----------------------|            |
A|----------------------|----------------------|            |
F|----------------------|----------------------|            |
C|----------------------|----------------------|            |
G|----------------------|----------------------|            |
D|-7--------------7-----|-5--------------5-----|            |
A|-5---5-5-5-5-5--5---5-|-3---3-3-3-3-3--3---3-|            |
       * * * * *      *       * * * * *      *              |
                                                            | x3
   П   П V П V П  П   П   П   П V П V П V П V П V П V       |
D|----------------------|-----------------------------|     |
A|----------------------|-----------------------------|     |
F|----------------------|-----------------------------|     |
C|----------------------|-----------------------------|     |
G|----------------------|-----------------------------|     |
D|-5--------------5-----|-5---------------------------|     |
A|-2---2-2-2-2-2--2---2-|-3---3-3-3-3-3-3-3-3-3-3-3-3-|     |
       * * * * *      *       * * * * * * * * * * * * ------|

   П   П V П V П  П   П   П   П V П V П  П   П 
D|----------------------|----------------------|
A|----------------------|----------------------|
F|----------------------|----------------------|
C|----------------------|----------------------|
G|----------------------|----------------------|
D|-7--------------7-----|-5--------------5-----|
A|-5---5-5-5-5-5--5---5-|-3---3-3-3-3-3--3---3-|
       * * * * *      *       * * * * *      *

   П   П V П V П  П   П   П
D|----------------------|----------------------|
A|----------------------|----------------------|
F|----------------------|----------------------|
C|----------------------|----------------------|
G|----------------------|----------------------|
D|-5--------------5-----|-5--------------------|
A|-2---2-2-2-2-2--2---2-|-3--------------------|
       * * * * *      *      

Suggest correction
Creating personal tab
Creating personal tab
You can edit any tab online and save it as your Personal.

You can edit, replace or remove any tab part or add personal notes – all changes will be seen only by you.

Personal tabs can be accessed anytime from any device, even offline.
Learn more »
comments
print report bad tab
1 comment total.
0 reply
peter.buzasi.7 33 Jul 29, 2016 04:07 AM

Good job, but the chorus riff is wrong:

П П П П П П П П П П П П П П П П
D|------------------------|------------------------|
A|------------------------|------------------------|
F|------------------------|------------------------|
C|------------------------|------------------------|
G|-4--------4--------4----|----4--------7-----7--7-|
D|-2--2--2--2--2--2--2--2-|-2--2--2--2--5--5--5--4-|
A|------------------------|------------------------|
* * * * * * * * * *

And the last D4G7 is strummed then instead of the D7G9

guest
You may want to rate the tab now too:
select rating
Wanna post a correction for this tab? Suggest correction