Oops, an error
Loading. Please wait.

Battle For Utopia tab

version 1
version 1

Whole song

Interactive

228 views 3 this week
no commentswrite comment
1 2 3 4 5
x 6
add to favorites
×
Save as Personal and add changes to this tab that will be seen only by you. Learn more ›
×
You can save this tab as Personal to edit and correct it or add notes. All changes will be seen only by you. Learn more »
launch autoscroll
font size
0
reset
how to read this tab
guitar tuner
edit
Autoscroll
slow
fast
+/-
esc
set tempo
stop
Author
Difficulty
|--------------------------------------------------------------------------------------------------------|
|                                     FEAR FACTORY - BATTLE FOR UTOPIA                                   |
|                                          Album: Genexus (2015)                                         |
|                                            Tab by Godspeedy                                            |
|--------------------------------------------------------------------------------------------------------|

                   If you have questions or corrections feel free to send me a message:
                                    https://www.facebook.com/Godspeedy14
                     
                 Also check out my Youtube channel: http://www.youtube.com/user/Godspeedy14

                        *************************************************************
                        * NOTE: If you need a playthrough, check out my cover here: *
                        *       https://www.youtube.com/watch?v=JEdAKwZYmIg         *
                        *************************************************************

                                        Tuning: 7 strings ADGCFAD 
                                                    
*********************************************GUITAR NOTATIONS*********************************************
*                                                                                                        *
*                                      | *   palm mute           |                                       *
*                                      | s   slide               |                                       *
*                                      | П   downstroke          |                                       *
*                                      | V   upstroke            |                                       *
*                                                                                                        *
**********************************************************************************************************

|--------------------------------------------------------------------------------------------------------|
|                                          INTRO (00:00-00:57)                                           |
|--------------------------------------------------------------------------------------------------------|

Guitars 1 and 2 (w/ dist)

   П V П V     П V П V                 П V П V     П V П V             П V П    П V П 
D|--------------------------|--------|--------------------------|-----------------------|
A|--------------------------|--------|--------------------------|-----------------------|
F|--------------------------|--------|--------------------------|-----------------------|
C|--------------------------|--------|--------------------------|-----------------------|
G|--------------------------|--------|--------------------------|-----------------------|
D|-0-0-0-0-----0-0-0-0------|--------|-0-0-0-0-----0-0-0-0------|------0-0-0----2-2-2---|
A|--------------------------|--------|--------------------------|-----------------------|
   * * * *     * * * *                 * * * *     * * * *             * * *    * * * 

   П V П V     П V П V                 П V П V     П V П V             П V П    П V П
D|--------------------------|--------|--------------------------|-----------------------|
A|--------------------------|--------|--------------------------|-----------------------|
F|--------------------------|--------|--------------------------|-----------------------|
C|--------------------------|--------|--------------------------|-----------------------|
G|--------------------------|--------|--------------------------|-----------------------|
D|--------------------------|--------|--------------------------|-----------------------|
A|-3-3-3-3-----3-3-3-3------|--------|-2-2-2-2-----2-2-2-2------|------2-2-2----2-2-2---|
   * * * *     * * * *                 * * * *     * * * *             * * *    * * * 

   П V П V     П V П V     П V П V      П V П V     П V П    П V П
D|---------------------------------|---------------------------------|
A|---------------------------------|---------------------------------|
F|---------------------------------|---------------------------------|
C|---------------------------------|---------------------------------|
G|---------------------------------|---------------------------------|
D|-0-0-0-0-----0-0-0-0-----0-0-0-0-|----0-0-0-0-----0-0-0----0-0-0---|
A|---------------------------------|---------------------------------|
   * * * *     * * * *     * * * *      * * * *     * * *    * * * 

   П V П V     П V П V     П V П V      П V П V     П V П    П V П
D|---------------------------------|---------------------------------|
A|---------------------------------|---------------------------------|
F|---------------------------------|---------------------------------|
C|---------------------------------|---------------------------------|
G|---------------------------------|---------------------------------|
D|-0-0-0-0-----0-0-0-0-----0-0-0-0-|----0-0-0-0-----0-0-0----2-2-2---|
A|---------------------------------|---------------------------------|
   * * * *     * * * *     * * * *      * * * *     * * *    * * * 

   П V П V     П V П V     П V П V      П V П V     П V П    П V П
D|---------------------------------|---------------------------------|
A|---------------------------------|---------------------------------|
F|---------------------------------|---------------------------------|
C|---------------------------------|---------------------------------|
G|---------------------------------|---------------------------------|
D|---------------------------------|---------------------------------|
A|-3-3-3-3-----3-3-3-3-----3-3-3-3-|----3-3-3-3-----3-3-3----3-3-3---|
   * * * *     * * * *     * * * *      * * * *     * * *    * * *

   П V П V     П V П V     П V П V      П V П V     П V П    П V П
D|---------------------------------|---------------------------------|
A|---------------------------------|---------------------------------|
F|---------------------------------|---------------------------------|
C|---------------------------------|---------------------------------|
G|---------------------------------|---------------------------------|
D|---------------------------------|---------------------------------|
A|-2-2-2-2-----2-2-2-2-----2-2-2-2-|----2-2-2-2-----2-2-2----2-2-2---|
   * * * *     * * * *     * * * *      * * * *     * * *    * * *

   П V П V     П V П V     П V П V      П V П V     П V П    П V П  -------|
D|---------------------------------|---------------------------------|     |
A|---------------------------------|---------------------------------|     |
F|---------------------------------|---------------------------------|     |
C|---------------------------------|---------------------------------|     |
G|---------------------------------|---------------------------------|     |
D|-0-0-0-0-----0-0-0-0-----0-0-0-0-|----0-0-0-0-----0-0-0----0-0-0---|     |
A|---------------------------------|---------------------------------|     |
   * * * *     * * * *     * * * *      * * * *     * * *    * * *         |
                                                                           |
   П V П V     П V П V     П V П V      П V П V     П V П    П V П         |
D|---------------------------------|---------------------------------|     |
A|---------------------------------|---------------------------------|     |
F|---------------------------------|---------------------------------|     |
C|---------------------------------|---------------------------------|     |
G|---------------------------------|---------------------------------|     |
D|-0-0-0-0-----0-0-0-0-----0-0-0-0-|----0-0-0-0-----0-0-0----2-2-2---|     |
A|---------------------------------|---------------------------------|     |
   * * * *     * * * *     * * * *      * * * *     * * *    * * *         |
                                                                           | x2
   П V П V     П V П V     П V П V      П V П V     П V П    П V П         |
D|---------------------------------|---------------------------------|     |
A|---------------------------------|---------------------------------|     |
F|---------------------------------|---------------------------------|     |
C|---------------------------------|---------------------------------|     |
G|---------------------------------|---------------------------------|     |
D|---------------------------------|---------------------------------|     |
A|-3-3-3-3-----3-3-3-3-----3-3-3-3-|----3-3-3-3-----3-3-3----3-3-3---|     |
   * * * *     * * * *     * * * *      * * * *     * * *    * * *         |
                                                                           |
   П V П V     П V П V     П V П V      П V П V     П V П V П П V П        |
D|---------------------------------|---------------------------------|     |
A|---------------------------------|---------------------------------|     |
F|---------------------------------|---------------------------------|     |
C|---------------------------------|---------------------------------|     |
G|---------------------------------|---------------------------------|     |
D|---------------------------------|---------------------------------|     |
A|-2-2-2-2-----2-2-2-2-----2-2-2-2-|----2-2-2-2-----2-2-2-2-2-2-2-2--|     |
   * * * *     * * * *     * * * *      * * * *     * * * * * * * * -------|

   П V П  П V П  П V П  П V П   П V П  П V П  П  П V П  П
D|----------------------------|---------------------------|
A|----------------------------|---------------------------|
F|----------------------------|---------------------------|
C|----------------------------|---------------------------|
G|----------------------------|---------------------------|
D|-1-1-1--1-1-1--1-1-1--1-1-1-|-1-1-1--1-1-1--1--1-1-1--1-|
A|----------------------------|---------------------------|
   * * *  * * *  * * *  * * *   * * *  * * *  *  * * *  *

   П V П  П V П  П V П  П V П   П V П  П V П  П V П П V
D|----------------------------|----------------------------|
A|----------------------------|----------------------------|
F|----------------------------|----------------------------|
C|----------------------------|----------------------------|
G|----------------------------|----------------------------|
D|-1-1-1--1-1-1--1-1-1--1-1-1-|-1-1-1--1-1-1--1-1-1-1-1----|
A|----------------------------|----------------------------|
   * * *  * * *  * * *  * * *   * * *  * * *  * * * * *

|--------------------------------------------------------------------------------------------------------|
|                                          VERSE (00:57-01:17)                                           |
|--------------------------------------------------------------------------------------------------------|

Guitars 1 and 2 (w/ dist)

   П V П  П V П  П V П  П V П   П V П  П V П  П  П V П  П
D|-----------------------------|---------------------------|
A|-----------------------------|---------------------------|
F|-----------------------------|---------------------------|
C|-----------------------------|---------------------------| x8
G|-----------------------------|---------------------------|
D|-1-1-1--1-1-1--1-1-1--1-1-1--|-1-1-1--1-1-1--1--1-1-1--1-|
A|-----------------------------|---------------------------|
   * * *  * * *  * * *  * * *    * * *  * * *  *  * * *  *
                                     
|--------------------------------------------------------------------------------------------------------|
|                                        PRE-CHORUS (01:17-01:27)                                        |
|--------------------------------------------------------------------------------------------------------|

Guitars 1 and 2 (w/ dist)

   П V П V П V П V П V П V П       П V П V П     П V П V П
D|-------------------------------|-----------------------------|
A|-------------------------------|-----------------------------|
F|-------------------------------|-----------------------------|
C|-------------------------------|-----------------------------| x3
G|-------------------------------|-----------------------------|
D|-2-2-2-2-2-2-2-2-2-2-2-2-2-----|-2-2-2-2-2-----2-2-2-2-2-----|
A|-------------------------------|-----------------------------|
   * * * * * * * * * * * * *       * * * * *     * * * * * 

   П V П V П V П V П V П V П       П V П V П   П V П V П
D|-------------------------------|-------------------------|
A|-------------------------------|-------------------------|
F|-------------------------------|-------------------------|
C|-------------------------------|-------------------------|
G|-------------------------------|---------5-----------7---|
D|-2-2-2-2-2-2-2-2-2-2-2-2-2-----|-2-2-2-2-3---2-2-2-2-5---|
A|-------------------------------|-------------------------|
   * * * * * * * * * * * * *       * * * *     * * * *

|--------------------------------------------------------------------------------------------------------|
|                                         VERSE 2 (01:27-01:37)                                          |
|--------------------------------------------------------------------------------------------------------|

Guitars 1 and 2 (w/ dist)

   П V П  П V П  П V П  П V П   П V П  П V П  П  П V П  П
D|-----------------------------|---------------------------|
A|-----------------------------|---------------------------|
F|-----------------------------|---------------------------|
C|-----------------------------|---------------------------| x4
G|-----------------------------|---------------------------|
D|-1-1-1--1-1-1--1-1-1--1-1-1--|-1-1-1--1-1-1--1--1-1-1--1-|
A|-----------------------------|---------------------------|
   * * *  * * *  * * *  * * *    * * *  * * *  *  * * *  *

|--------------------------------------------------------------------------------------------------------|
|                                          CHORUS (01:37-02:07)                                          |
|--------------------------------------------------------------------------------------------------------|

Guitars 1 and 2 (w/ dist)

   П V П V     П V П V     П V П V      П V П V     П V П    П V П  -------|
D|---------------------------------|---------------------------------|     |
A|---------------------------------|---------------------------------|     |
F|---------------------------------|---------------------------------|     |
C|---------------------------------|---------------------------------|     |
G|---------------------------------|---------------------------------|     |
D|-0-0-0-0-----0-0-0-0-----0-0-0-0-|----0-0-0-0-----0-0-0----0-0-0---|     |
A|---------------------------------|---------------------------------|     |
   * * * *     * * * *     * * * *      * * * *     * * *    * * *         |
                                                                           |
   П V П V     П V П V     П V П V      П V П V     П V П    П V П         |
D|---------------------------------|---------------------------------|     |
A|---------------------------------|---------------------------------|     |
F|---------------------------------|---------------------------------|     |
C|---------------------------------|---------------------------------|     |
G|---------------------------------|---------------------------------|     |
D|-0-0-0-0-----0-0-0-0-----0-0-0-0-|----0-0-0-0-----0-0-0----2-2-2---|     |
A|---------------------------------|---------------------------------|     |
   * * * *     * * * *     * * * *      * * * *     * * *    * * *         |
                                                                           | x2
   П V П V     П V П V     П V П V      П V П V     П V П    П V П         |
D|---------------------------------|---------------------------------|     |
A|---------------------------------|---------------------------------|     |
F|---------------------------------|---------------------------------|     |
C|---------------------------------|---------------------------------|     |
G|---------------------------------|---------------------------------|     |
D|---------------------------------|---------------------------------|     |
A|-3-3-3-3-----3-3-3-3-----3-3-3-3-|----3-3-3-3-----3-3-3----3-3-3---|     |
   * * * *     * * * *     * * * *      * * * *     * * *    * * *         |
                                                                           |
   П V П V     П V П V     П V П V      П V П V     П V П V П П V П        |
D|---------------------------------|---------------------------------|     |
A|---------------------------------|---------------------------------|     |
F|---------------------------------|---------------------------------|     |
C|---------------------------------|---------------------------------|     |
G|---------------------------------|---------------------------------|     |
D|---------------------------------|---------------------------------|     |
A|-2-2-2-2-----2-2-2-2-----2-2-2-2-|----2-2-2-2-----2-2-2-2-2-2-2-2--|     |
   * * * *     * * * *     * * * *      * * * *     * * * * * * * * -------|

   П V П V     П V П V     П V П V      П V П V     П V П    П V П
D|---------------------------------|---------------------------------|
A|---------------------------------|---------------------------------|
F|---------------------------------|---------------------------------|
C|---------------------------------|---------------------------------|
G|---------------------------------|---------------------------------|
D|---------------------------------|---------------------------------|
A|-3-3-3-3-----3-3-3-3-----3-3-3-3-|----3-3-3-3-----3-3-3----3-3-3---|\
   * * * *     * * * *     * * * *      * * * *     * * *    * * *     \
                                                                        x2
   П V П V     П V П V     П V П V      П V П V     П V П V П П V П    /
D|---------------------------------|---------------------------------|/
A|---------------------------------|---------------------------------|
F|---------------------------------|---------------------------------|
C|---------------------------------|---------------------------------|
G|---------------------------------|---------------------------------|
D|---------------------------------|---------------------------------|
A|-2-2-2-2-----2-2-2-2-----2-2-2-2-|----2-2-2-2-----2-2-2-2-2-2-2-2--|
   * * * *     * * * *     * * * *      * * * *     * * * * * * * *

|--------------------------------------------------------------------------------------------------------|
|                                          BRIDGE (02:07-03:11)                                          |
|--------------------------------------------------------------------------------------------------------|

Guitars 1 and 2 (w/ dist)

   П V П V П  П V П V П  П V П V   П  П V П V П  П V П  П V П
D|-------------------------------|----------------------------|
A|-------------------------------|----------------------------|
F|-------------------------------|----------------------------| x3
C|-------------------------------|----------------------------|
G|-------------------------------|----------------------------|
D|-5-5-4-4-0--6-6-5-5-0--5-5-4-4-|-0--6-6-5-5-0--5-5-5--0-0-0-|
A|-------------------------------|----------------------------|
   * * * * *  * * * * *  * * * *   *  * * * * *  * * *  * * *

   П V П V П  П V П V П  П V П V   П  П V П V П  П V П  П V П
D|-------------------------------|----------------------------|
A|-------------------------------|----------------------------|
F|-------------------------------|----------------------------|
C|-------------------------------|----------------------------|
G|-------------------------------|----------------------------|
D|-5-5-4-4-0--6-6-5-5-0--5-5-4-4-|-0--6-6-5-5-0--0-0-0--0-0-0-|
A|-------------------------------|----------------------------|
   * * * * *  * * * * *  * * * *   *  * * * * *  * * *  * * *

   П     П  П     П  П      П  П     П  П     П V П V
D|------------------------|---------------------------|
A|------------------------|---------------------------|
F|------------------------|---------------------------| x3
C|------------------------|---------------------------|
G|-7-s6-----8-s7-----7-s6-|----8-s7-----7-s6----------|
D|-5-s4--0--6-s5--0--5-s4-|-0--6-s5--0--5-s4--0-0-0-0-|
A|------------------------|---------------------------|
         *        *         *        *        * * * * 

   П     П  П     П  П      П  П     П  П
D|------------------------|---------------------|
A|------------------------|---------------------|
F|------------------------|---------------------|
C|------------------------|---------------------|
G|-7-s6-----8-s7-----7-s6-|----8-s7-----7-s6----|
D|-5-s4--0--6-s5--0--5-s4-|-0--6-s5--0--5-s4----|
A|------------------------|---------------------|
         *        *         *        *

   П     П  П     П  П      П  П     П  П     П V П V
D|------------------------|---------------------------|
A|------------------------|---------------------------|
F|------------------------|---------------------------| x3
C|------------------------|---------------------------|
G|-7-s6-----8-s7-----7-s6-|----8-s7-----7-s6----------|
D|-5-s4--0--6-s5--0--5-s4-|-0--6-s5--0--5-s4--0-0-0-0-|
A|------------------------|---------------------------|
         *        *         *        *        * * * * 

   П V П V П  П V П V П  П V П V   П  П V П V П  П V П V П V П V
D|-------------------------------|-------------------------------|
A|-------------------------------|-------------------------------|
F|-------------------------------|-------------------------------|
C|-------------------------------|-------------------------------|
G|-------------------------------|-------------------------------|
D|-5-5-4-4-0--6-6-5-5-0--5-5-4-4-|-0--6-6-5-5-0--5-4-0-0-6-5-0-0-|
A|-------------------------------|-------------------------------|
   * * * * *  * * * * *  * * * *   *  * * * * *  * * * * * * * *

   П     П  П   П     П  П   П     П  П   П    П     П     П  П   П     П  П   П     П  П   П    П
D|------------|------------|------------|----------|------------|------------|------------|----------|
A|------------|------------|------------|----------|------------|------------|------------|----------|
F|------------|------------|------------|----------|------------|------------|------------|----------|
C|------------|------------|------------|----------|------------|------------|------------|----------|
G|-2-----2--2-|-6-----6--6-|------------|-4----7---|-2-----2--2-|-6-----6--6-|------------|----------|
D|-0-----0--0-|-4-----4--4-|-5-----5--5-|-2----5---|-0-----0--0-|-4-----4--4-|-5-----5--5-|-4----5---|
A|------------|------------|-3-----3--3-|----------|------------|------------|-3-----3--3-|-2----3---|
         *  *         *  *         *  *                    *  *         *  *         *  *

   П     П  П   П     П  П   П     П  П   П    П     П     П  П   П     П  П   П     П  П   П    П
D|------------|------------|------------|----------|------------|------------|------------|----------|
A|------------|------------|------------|----------|------------|------------|------------|----------|
F|------------|------------|------------|----------|------------|------------|------------|----------|
C|------------|------------|------------|----------|------------|------------|------------|----------|
G|-2-----2--2-|-6-----6--6-|------------|-4----7---|-2-----2--2-|-6-----6--6-|-7-----7--7-|----------|
D|-0-----0--0-|-4-----4--4-|-5-----5--5-|-2----5---|-0-----0--0-|-4-----4--4-|-5-----5--5-|-5----4---|
A|------------|------------|-3-----3--3-|----------|------------|------------|------------|-3----2---|
         *  *         *  *         *  *                    *  *         *  *         *  *

|--------------------------------------------------------------------------------------------------------|
|                                         CHORUS 2 (03:11-03:31)                                         |
|--------------------------------------------------------------------------------------------------------|

Guitars 1 and 2 (w/ dist)

   П V П V     П V П V     П V П V      П V П V     П V П    П V П  -------|
D|---------------------------------|---------------------------------|     |
A|---------------------------------|---------------------------------|     |
F|---------------------------------|---------------------------------|     |
C|---------------------------------|---------------------------------|     |
G|---------------------------------|---------------------------------|     |
D|-0-0-0-0-----0-0-0-0-----0-0-0-0-|----0-0-0-0-----0-0-0----0-0-0---|     |
A|---------------------------------|---------------------------------|     |
   * * * *     * * * *     * * * *      * * * *     * * *    * * *         |
                                                                           |
   П V П V     П V П V     П V П V      П V П V     П V П    П V П         |
D|---------------------------------|---------------------------------|     |
A|---------------------------------|---------------------------------|     |
F|---------------------------------|---------------------------------|     |
C|---------------------------------|---------------------------------|     |
G|---------------------------------|---------------------------------|     |
D|-0-0-0-0-----0-0-0-0-----0-0-0-0-|----0-0-0-0-----0-0-0----2-2-2---|     |
A|---------------------------------|---------------------------------|     |
   * * * *     * * * *     * * * *      * * * *     * * *    * * *         |
                                                                           | x2
   П V П V     П V П V     П V П V      П V П V     П V П    П V П         |
D|---------------------------------|---------------------------------|     |
A|---------------------------------|---------------------------------|     |
F|---------------------------------|---------------------------------|     |
C|---------------------------------|---------------------------------|     |
G|---------------------------------|---------------------------------|     |
D|---------------------------------|---------------------------------|     |
A|-3-3-3-3-----3-3-3-3-----3-3-3-3-|----3-3-3-3-----3-3-3----3-3-3---|     |
   * * * *     * * * *     * * * *      * * * *     * * *    * * *         |
                                                                           |
   П V П V     П V П V     П V П V      П V П V     П V П V П П V П        |
D|---------------------------------|---------------------------------|     |
A|---------------------------------|---------------------------------|     |
F|---------------------------------|---------------------------------|     |
C|---------------------------------|---------------------------------|     |
G|---------------------------------|---------------------------------|     |
D|---------------------------------|---------------------------------|     |
A|-2-2-2-2-----2-2-2-2-----2-2-2-2-|----2-2-2-2-----2-2-2-2-2-2-2-2--|     |
   * * * *     * * * *     * * * *      * * * *     * * * * * * * * -------|

|--------------------------------------------------------------------------------------------------------|
|                                          OUTRO (03:31-04:14)                                           |
|--------------------------------------------------------------------------------------------------------|

Guitars 1 and 2 (w/ dist)

   П V П V     П V П V     П V П V      П V П V     П V П V П П V П  ------|
D|---------------------------------|---------------------------------|     |
A|---------------------------------|---------------------------------|     |
F|---------------------------------|---------------------------------|     |
C|---------------------------------|---------------------------------|     |
G|---------------------------------|---------------------------------|     |
D|-0-0-0-0-----0-0-0-0-----0-0-0-0-|----0-0-0-0-----0-0-0-0-0-0-0-0--|     |
A|---------------------------------|---------------------------------|     |
   * * * *     * * * *     * * * *      * * * *     * * * * * * * *        |
                                                                           |
   П V П V     П V П V     П V П V      П V П V     П V П    П V П         |
D|---------------------------------|---------------------------------|     |
A|---------------------------------|---------------------------------|     |
F|---------------------------------|---------------------------------|     |
C|---------------------------------|---------------------------------|     |
G|---------------------------------|---------------------------------|     |
D|-0-0-0-0-----0-0-0-0-----0-0-0-0-|----0-0-0-0-----0-0-0----2-2-2---|     |
A|---------------------------------|---------------------------------|     |
   * * * *     * * * *     * * * *      * * * *     * * *    * * *         |
                                                                           |
   П V П V     П V П V     П V П V      П V П V     П V П V П П V П        | x2
D|---------------------------------|---------------------------------|     |
A|---------------------------------|---------------------------------|     |
F|---------------------------------|---------------------------------|     |
C|---------------------------------|---------------------------------|     |
G|---------------------------------|---------------------------------|     |
D|---------------------------------|---------------------------------|     |
A|-3-3-3-3-----3-3-3-3-----3-3-3-3-|----3-3-3-3-----3-3-3-3-3-3-3-3--|     |
   * * * *     * * * *     * * * *      * * * *     * * * * * * * *        |
                                                                           |
   П V П V     П V П V     П V П V      П V П V     П V П V П П V П        |
D|---------------------------------|---------------------------------|     |
A|---------------------------------|---------------------------------|     |
F|---------------------------------|---------------------------------|     |
C|---------------------------------|---------------------------------|     |
G|---------------------------------|---------------------------------|     |
D|---------------------------------|---------------------------------|     |
A|-2-2-2-2-----2-2-2-2-----2-2-2-2-|----2-2-2-2-----2-2-2-2-2-2-2-2--|     |
   * * * *     * * * *     * * * *      * * * *     * * * * * * * * -------|

   П V П V     П V П V     П V П V      П V П V     П V П V П П V П
D|---------------------------------|---------------------------------|
A|---------------------------------|---------------------------------|
F|---------------------------------|---------------------------------|
C|---------------------------------|---------------------------------|
G|---------------------------------|---------------------------------|
D|---------------------------------|---------------------------------|
A|-3-3-3-3-----3-3-3-3-----3-3-3-3-|----3-3-3-3-----3-3-3-3-3-3-3-3--|
   * * * *     * * * *     * * * *      * * * *     * * * * * * * *

   П V П V     П V П V     П V П V      П V П V     П V П V П П V П
D|---------------------------------|---------------------------------|
A|---------------------------------|---------------------------------|
F|---------------------------------|---------------------------------|
C|---------------------------------|---------------------------------|
G|---------------------------------|---------------------------------|
D|---------------------------------|---------------------------------|
A|-2-2-2-2-----2-2-2-2-----2-2-2-2-|----2-2-2-2-----2-2-2-2-2-2-2-2--|
   * * * *     * * * *     * * * *      * * * *     * * * * * * * * 

   П V П  П  П  П  П  П V П V   П  П  П  П  П V П V П V П V 
D|----------------------------|-----------------------------|
A|----------------------------|-----------------------------|
F|----------------------------|-----------------------------|
C|----------------------------|-----------------------------|
G|----------------------------|-----------------------------|
D|----------------------------|-----------------------------|
A|-3-3-3--3--3--3--3--3-3-3-3-|-3--3--3--3--3-3-3-3-3-3-3-3-|
   * * *  *  *  *  *  * * * *   *  *  *  *  * * * * * * * *

   П V П  П  П  П  П  П V П V   П  П  П  П  П V П V П V П V   П
D|----------------------------|-----------------------------|--------|
A|----------------------------|-----------------------------|--------|
F|----------------------------|-----------------------------|--------|
C|----------------------------|-----------------------------|--------|
G|----------------------------|-----------------------------|--------|
D|----------------------------|-----------------------------|--------|
A|-2-2-2--2--2--2--2--2-2-2-2-|-2--2--2--2--2-2-2-2-2-2-2-2-|-2------|
   * * *  *  *  *  *  * * * *   *  *  *  *  * * * * * * * *   *


Suggest correction
Creating personal tab
Creating personal tab
You can edit any tab online and save it as your Personal.

You can edit, replace or remove any tab part or add personal notes – all changes will be seen only by you.

Personal tabs can be accessed anytime from any device, even offline.
Learn more »
comments
print report bad tab
guest
You may want to rate the tab now too:
select rating
Wanna post a correction for this tab? Suggest correction