Oops, an error
Loading. Please wait.

Byte Block Bass Tab

270 views 1 this week
no commentswrite comment
1 2 3 4 5
please rate
add to favorites
launch autoscroll
font size
0
reset
guitar tuner
Autoscroll
slow
fast
+/-
esc
set tempo
stop
Help us to improve Ultimate-Guitar.com Take our survey!
×
Contributor
Gipsybass 166
Tuning : D A E B

K= kill note ( deaden the note right after it's played )



 Intro part 1
B|---------------|---------------|---------------|---------------|
E|---------------|---------------|---------------|---------------|
A|---------------|---------------|---------------|3-3-3-3-1-1-1-1|3x
D|0h3-3-3-3-3-3-3|3-3-3-3-3-3-3-3|3-3-3-3-3-3-3-3|---------------|

 Intro part 2
B|---------------|---------------|---------------|-------|
E|---------------|---------------|---------------|-------|
A|---------------|---------------|---------------|-------|
D|0h3-3-3-3-3-3-3|0h3-3-3-3-3-3-3|0h3-3-3-3-3-3-3|0h3-3-3|

 Verse 1
B|-------|---------------|---------------|---------------|---------------|
E|-------|---------------|---------------|---------------|---------------|
A|-------|---------------|---------------|---------------|---------------|
D|5-3-3-3|5-3-3-3-5-3-6-3|5-3-3-3-5-3-6-3|5-3-3-3-5-3-6-3|5-3-3-3-5-3-5-3|

B|---------------|---------------|---------------|---------|
E|---------------|---------------|---------------|---------|
A|---------------|---------------|---------------|---------|
D|5-3-3-3-5-3-6-3|5-3-3-3-5-3-6-3|5-3-3-3-5-3-6-3|5-3-3-3-5|

 Verse 2
B|-----------|-----------|-----------|---------------|
E|-----------|-----------|-----------|---------------|
A|-----------|-----------|-----------|---------------|2x
D|3-0-0-0-0-0|3-0-0-0-0-0|3-0-0-0-0-0|3-0-0-0-3-0-0-0|

 Verse 3
B|-----------|---------------|-----------|--------------|
E|----3x-----|---------------|----3x-----|--------------|
A|-----------|---------------|-----------|--------------|
D|3-0-0-0-0-0|3-0-0-5-0-0-3-0|3-0-0-0-0-0|3-0-0-5-0-0-6k|

Pre-chorus       3x         
B|---------------|---------------|---------------------------|
E|---------------|---------------|---------------------------|
A|------0-0------|------2-2-2-2-2|------0-0-0-------------2-2|
D|0-0-0-----2-2-2|2-2-2----------|0-0-0-------2-2-2-1-1-1----|

 Verse 1

Verse 2

 Verse 3

Pre-Chorus

 Chorus
B|--------------------------|  |---Play this on the----|
E|--------------------------|8x|----4th time only------|
A|--------------------------|  |-----------------------|
D|1--0-0-3--1-1-5--4-4-6-6-6|  |1--0-0-3--1-1-5--4-4-6k|

Bridge
B|---------|
E|---------|
A|--------1| 24x
D|0-2-1-0--|
Note: the bass doesnt ring, it just jumps right into this

Pre-Chorus

Chorus
comments
We did not receive enough feedback on this tab! Please rate:
print report bad tab
1 2 3 4 5
I want to post or [tab]
guest
You may want to rate the tab now too:
select rating
Please do not post tabs as comments. Select "correction" instead!