Oops, an error
Loading. Please wait.

Cars Bass Tab

version 4
version 4

Whole song

Interactive

606 views 1 this week
no commentswrite comment
1 2 3 4 5
2 more votes to show rating
add to favorites
launch autoscroll
font size
0
reset
guitar tuner
Autoscroll
slow
fast
+/-
esc
set tempo
stop
Help us to improve Ultimate-Guitar.com Take our survey!
×
Author
Difficulty
The Main Riff

Play this part 4 times

G[---------------------]
D[---------------------]
A[----5-4--------------]
E[--------3—5---5-5----]
B[---------------------]


Then play this part twice

G[------------]
D[------------]
A[-------2----]
E[---2-3---3--]
B[------------]

Then play this part twice 

G[------------------------------------------------------------------]
D[--------------------------3-2-------------------------------------]
A[------5----2-3-2-----5-------------5-----2-3-2------------5-------]
E[--------5--------------5-------------5----------------3--5--------]
B[---3--------------3------------3-----------------3--3-------------]
 
                  Then repeat
Suggest correction
Give kudos to tab author, rate the tab!
1 2 3 4 5
comments
print report bad tab
guest
You may want to rate the tab now too:
select rating
Wanna post a correction for this tab? Suggest correction