Oops, an error
Loading. Please wait.

Church Of Execution tab

version 1
version 1

Whole song

Interactive

236 views 1 this week
no commentswrite comment
1 2 3 4 5
x 6
add to favorites
×
Save as Personal and add changes to this tab that will be seen only by you. Learn more ›
×
You can save this tab as Personal to edit and correct it or add notes. All changes will be seen only by you. Learn more »
launch autoscroll
font size
0
reset
how to read this tab
guitar tuner
edit
Autoscroll
slow
fast
+/-
esc
set tempo
stop
Author
Difficulty
|--------------------------------------------------------------------------------------------------------|
|                                    FEAR FACTORY - CHURCH OF EXECUTION                                  |
|                                           Album: Genexus (2015)                                        |
|                                             Tab by Godspeedy                                           |
|--------------------------------------------------------------------------------------------------------|

                   If you have questions or corrections feel free to send me a message:
                                    https://www.facebook.com/Godspeedy14
                     
                 Also check out my Youtube channel: http://www.youtube.com/user/Godspeedy14

                        *************************************************************
                        * NOTE: If you need a playthrough, check out my cover here: *
                        *       https://www.youtube.com/watch?v=lQb2veYFdrA         *
                        *************************************************************

                                       Tuning: 7 strings GCFA#D#GC 
                                                    
*********************************************GUITAR NOTATIONS*********************************************
*                                                                                                        *
*                                      | *   palm mute           |                                       *
*                                      | p   pull-off            |                                       *
*                                      | ~   vibrato             |                                       *
*                                      | x   muted note          |                                       *
*                                      | b   bend                |                                       *
*                                      | П   downstroke          |                                       *
*                                      | V   upstroke            |                                       *
*                                                                                                        *
**********************************************************************************************************

|--------------------------------------------------------------------------------------------------------|
|                                          INTRO (00:00-00:38)                                           |
|--------------------------------------------------------------------------------------------------------|

I. Guitar 1 (w/ clean)

    П     П  П     П     П   П  П     П    П     П  П     П     П   П  П   П V П V
 C|--------------------------------------|-----------------------------------------|
 G|--------------------------------------|-----------------------------------------|
D#|--------------------------------------|-----------------------------------------| x3
A#|--------------------------------------|-----------------------------------------|
 F|--------------------------------------|-----------------------------------------|
 C|--------------------------------------|-----------------------------------------|
 G|-3-p0--0--3-p0--0-----3---0--3-p0--0--|-3-p0--0--3-p0--0-----3---0--3b--0-0-0-0-|
          *                  *                   *                  *      * * * *

    П     П  П     П     П   П  П     П 
 C|--------------------------------------|-----------------------------------------|
 G|--------------------------------------|-----------------------------------------|
D#|--------------------------------------|-----------------------------------------|
A#|--------------------------------------|-----------------------------------------|
 F|--------------------------------------|-----------------------------------------|
 C|--------------------------------------|-----------------------------------------|
 G|-3-p0--0--3-p0--0-----3---0--3-p0--0--|-----------------------------------------|
          *                  *    

II. Guitars 1 and 2 (w/ dist)

    П     П  П     П     П   П  П     П    П     П  П     П     П   П  П   П V П V
 C|--------------------------------------|-----------------------------------------|
 G|--------------------------------------|-----------------------------------------|
D#|--------------------------------------|-----------------------------------------| x3
A#|--------------------------------------|-----------------------------------------|
 F|--------------------------------------|-----------------------------------------|
 C|--------------------------------------|-----------------------------------------|
 G|-3-p0--0--3-p0--0-----3---0--3-p0--0--|-3-p0--0--3-p0--0-----3---0--3---0-0-0-0-|
          *                  *                   *                  *      * * * *

    П     П  П     П     П   П  П     П    П     П  П     П     П   П  П   П
 C|--------------------------------------|-----------------------------------------|
 G|--------------------------------------|-----------------------------------------|
D#|--------------------------------------|-----------------------------------------|
A#|--------------------------------------|-----------------------------------------|
 F|--------------------------------------|-----------------------------------------|
 C|--------------------------------------|-----------------------------------------|
 G|-3-p0--0--3-p0--0-----3---0--3-p0--0--|-3-p0--0--3-p0--0-----3---0--3---0-------|
          *                  *                   *                  *      *

|--------------------------------------------------------------------------------------------------------|
|                                          VERSE (00:38-00:47)                                           |
|--------------------------------------------------------------------------------------------------------|

Guitars 1 and 2 (w/ clean and delay)

                    П   П  V                     П   П  V
 C|-----------|----------------|-----------|----------------|
 G|-----------|----------------|-----------|----------------|
D#|-----------|-----4---4--5~~~|-----------|-----4---4--5~~~|
A#|-----------|----------------|-----------|----------------|
 F|-----------|----------------|-----------|----------------|
 C|-----------|----------------|-----------|----------------|
 G|-----------|----------------|-----------|----------------|
                                     
|--------------------------------------------------------------------------------------------------------|
|                                        PRE-CHORUS (00:47-00:57)                                        |
|--------------------------------------------------------------------------------------------------------|

Guitars 1 and 2 (w/ dist)

    П     П  П     П     П   П  П     П    П     П  П     П     П   П  П   П V П V
 C|--------------------------------------|-----------------------------------------|
 G|--------------------------------------|-----------------------------------------|
D#|--------------------------------------|-----------------------------------------|
A#|--------------------------------------|-----------------------------------------|
 F|--------------------------------------|-----------------------------------------|
 C|--------------------------------------|-----------------------------------------|
 G|-3-p0--0--3-p0--0-----3---0--3-p0--0--|-3-p0--0--3-p0--0-----3---0--3---0-0-0-0-|
          *                  *                   *                  *      * * * *

    П     П  П     П     П   П  П     П    П     П  П     П     П   П  П   П  П  П  П  П
 C|--------------------------------------|------------------------------------------------|
 G|--------------------------------------|------------------------------------------------|
D#|--------------------------------------|------------------------------------------------|
A#|--------------------------------------|------------------------------------------------|
 F|--------------------------------------|------------------------------------------------|
 C|--------------------------------------|------------------------------------------------|
 G|-3-p0--0--3-p0--0-----3---0--3-p0--0--|-3-p0--0--3-p0--0-----3---0--3---0--0--0--0--0--|
          *                  *                   *                  *      *  *  *  *  *

|--------------------------------------------------------------------------------------------------------|
|                                          CHORUS (00:57-01:15)                                          |
|--------------------------------------------------------------------------------------------------------|

Guitars 1 and 2 (w/ dist)

    П  П   П  V   П    V   П  V     П  П   П  V   П    V   П  V
 C|-------------------------------|-------------------------------|
 G|-------------------------------|-------------------------------|
D#|---------------4----4------4---|---------------3----3------3---|
A#|-------------------------------|-------------------------------|
 F|-------------------------------|-------------------------------|
 C|-------------------------------|-------------------------------|
 G|-0--0---0--0------------0------|-0--0---0--0------------0------|
    *                      *        *                      *

    П  П   П  V   П    V   П  V     П  П   П  V   П    V   П  V
 C|-------------------------------|-------------------------------|
 G|-------------------------------|-------------------------------|
D#|---------------4----4------4---|---------------3----3---3--6---|
A#|-------------------------------|-------------------------------|
 F|-------------------------------|-------------------------------|
 C|-------------------------------|-------------------------------|
 G|-0--0---0--0------------0------|-0--0---0--0-------------------|
    *                      *        *  

    П  П   П  V   П    V   П  V     П  П   П  V   П    V   П  V
 C|-------------------------------|-------------------------------|
 G|-------------------------------|-------------------------------|
D#|---------------4----4------4---|---------------3----3------3---|
A#|-------------------------------|-------------------------------|
 F|-------------------------------|-------------------------------|
 C|-------------------------------|-------------------------------|
 G|-0--0---0--0------------0------|-0--0---0--0------------0------|
    *                      *        *                      *

    П  П   П  V   П    V   П  V   П    П  V   П   П  П
 C|----------------------------------|-----------------------|
 G|---------------------------4------|-----------------------|
D#|---------------4----4---4------4--|-----------------------|
A#|----------------------------------|-----------------------|
 F|----------------------------------|-----------------------|
 C|----------------------------------|-----------------------|
 G|-0--0---0--0----------------------|-0--0---0---0--0-------|
    *                                             *

|--------------------------------------------------------------------------------------------------------|
|                                       POST-CHORUS (01:15-01:24)                                        |
|--------------------------------------------------------------------------------------------------------|

Guitars 1 and 2 (w/ dist)

    П     П  П     П     П   П  П   П V П V   П     П  П     П     П   П  П   П V П V
 C|-----------------------------------------|-----------------------------------------|
 G|-----------------------------------------|-----------------------------------------|
D#|-----------------------------------------|-----------------------------------------|
A#|-----------------------------------------|-----------------------------------------|
 F|-----------------------------------------|-----------------------------------------|
 C|-----------------------------------------|-----------------------------------------|
 G|-3-p0--0--3-p0--0-----3---0--3---0-0-0-0-|-3-p0--0--3-p0--0-----3---0--3---0-0-0-0-|
          *                  *      * * * *         *                  *      * * * *

    П     П  П     П     П   П  П   П V П V   П     П  П     П     П   П  П   П
 C|-----------------------------------------|-----------------------------------------|
 G|-----------------------------------------|-----------------------------------------|
D#|-----------------------------------------|-----------------------------------------|
A#|-----------------------------------------|-----------------------------------------|
 F|-----------------------------------------|-----------------------------------------|
 C|-----------------------------------------|-----------------------------------------|
 G|-3-p0--0--3-p0--0-----3---0--3---0-0-0-0-|-3-p0--0--3-p0--0-----3---0--3---0-------|
          *                  *      * * * *         *                  *      *

|--------------------------------------------------------------------------------------------------------|
|                                         VERSE 2 (01:24-01:33)                                          |
|--------------------------------------------------------------------------------------------------------|
                                              same as VERSE
|--------------------------------------------------------------------------------------------------------|
|                                       PRE-CHORUS 2 (01:33-01:42)                                       |
|--------------------------------------------------------------------------------------------------------|

Guitars 1 and 2 (w/ dist)

    П     П  П     П     П   П  П     П    П     П  П     П     П   П  П   П V П V
 C|--------------------------------------|-----------------------------------------|
 G|--------------------------------------|-----------------------------------------|
D#|--------------------------------------|-----------------------------------------|
A#|--------------------------------------|-----------------------------------------|
 F|--------------------------------------|-----------------------------------------|
 C|--------------------------------------|-----------------------------------------|
 G|-3-p0--0--3-p0--0-----3---0--3-p0--0--|-3-p0--0--3-p0--0-----3---0--3---0-0-0-0-|
          *                  *                   *                  *      * * * *

    П     П  П     П     П   П  П     П    П     П  П     П     П   П  П   П 
 C|--------------------------------------|-----------------------------------------|
 G|--------------------------------------|-----------------------------------------|
D#|--------------------------------------|-----------------------------------------|
A#|--------------------------------------|-----------------------------------------|
 F|--------------------------------------|-----------------------------------------|
 C|--------------------------------------|-----------------------------------------|
 G|-3-p0--0--3-p0--0-----3---0--3-p0--0--|-3-p0--0--3-p0--0-----3---0--3---0-------|
          *                  *                   *                  *      *

|--------------------------------------------------------------------------------------------------------|
|                                         CHORUS 2 (01:42-02:00)                                         |
|--------------------------------------------------------------------------------------------------------|
                                              same as CHORUS
|--------------------------------------------------------------------------------------------------------|
|                                          BRIDGE (02:00-02:41)                                          |
|--------------------------------------------------------------------------------------------------------|

I. Guitars 1 and 2 (w/ dist)

    П  V   П  V  П  V   П  V   П  V  П  V     П  V   П  V  П  V   П  V   П  П V П V П V П V
 C|-----------------------------------------|-----------------------------------------------|
 G|-----------------------------------------|-----------------------------------------------|
D#|-----------------------------------------|-----------------------------------------------|
A#|-----------------------------------------|-----------------------------------------------|
 F|-----------------------------------------|-----------------------------------------------|
 C|-----------------------------------------|-----------------------------------------------|
 G|-4--4---4--5--4--4---4--4---4--5--4--4---|-4--4---4--5--4--4---4--4---4--5-5-5-5-5-5-5-5-|
    *  *   *  *  *  *   *  *   *  *  *  *     *  *   *  *  *  *   *  *   *  * * * * * * * *

    П  V   П  V  П  V   П  V   П  V  П  П V П V   П  V   П  V  П  V   П  V   П  V   П 
 C|---------------------------------------------|--------------------------------------|
 G|---------------------------------------------|--------------------------------------|
D#|---------------------------------------------|--------------------------------------| x4
A#|---------------------------------------------|--------------------------------------|
 F|---------------------------------------------|--------------------------------------|
 C|---------------------------------------------|-----------------------------------7--|
 G|-4--4---4--5--4--4---4--4---4--5--4--4-4-4-4-|-4--4---4--5--4--4---4--4---4--5---5--|
    *  *   *  *  *  *   *  *   *  *  *  * * * *   *  *   *  *  *  *   *  *   *  *   

    П   П  П   П  П   П  П   П  П
 C|----------------------------------|
 G|----------------------------------|
D#|----------------------------------| x4
A#|----------------------------------|
 F|----------------------------------|
 C|-7---6--7---6--7---6--7---6--7----|
 G|-5---4--5---4--5---4--5---4--5----|
        *      *      *      * 

II. Guitar 1 (w/ clean and delay)

    П  П   П  П   П    V   П  V     П  П   П  П   П    V   П  V
 C|-------------------------------|-------------------------------|
 G|-------------------------------|-------------------------------|
D#|---------------4----4------4---|---------------3----3------3---|
A#|-------------------------------|-------------------------------|
 F|-------------------------------|-------------------------------|
 C|-------------------------------|-------------------------------|
 G|-0--0---0--0------------0------|-0--0---0--0------------0------|
    *                      *        *                      *

    П  П   П  П   П    V   П  V   П    П  П   П  П   П 
 C|----------------------------------|-----------------------|
 G|---------------------------4------|-----------------------|
D#|---------------4----4----------4--|---------------3-------|
A#|----------------------------------|-----------------------|
 F|----------------------------------|-----------------------|
 C|----------------------------------|-----------------------|
 G|-0--0---0--0------------0---------|-0--0---0--0-----------|
    *                      *           *

|--------------------------------------------------------------------------------------------------------|
|                                         CHORUS 3 (02:41-02:59)                                         |
|--------------------------------------------------------------------------------------------------------|
                                             same as CHORUS
|--------------------------------------------------------------------------------------------------------|
|                                          OUTRO (02:59-03:21)                                           |
|--------------------------------------------------------------------------------------------------------|

Guitars 1 and 2 (w/ dist)

    П  П   П  V   П    V   П  V     П  П   П  V   П    V   П  V
 C|-------------------------------|-------------------------------|
 G|-------------------------------|-------------------------------|
D#|---------------4----4------4---|---------------3----3------3---|
A#|-------------------------------|-------------------------------|
 F|-------------------------------|-------------------------------|
 C|-------------------------------|-------------------------------|
 G|-0--0---0--0------------0------|-0--0---0--0------------0------|
    *                      *        *                      *

    П  П   П  V   П    V   П  V     П  П   П  V   П    V   П  V
 C|-------------------------------|-------------------------------|
 G|-------------------------------|-------------------------------|
D#|---------------4----4------4---|---------------3----3---3--6---|
A#|-------------------------------|-------------------------------|
 F|-------------------------------|-------------------------------|
 C|-------------------------------|-------------------------------|
 G|-0--0---0--0------------0------|-0--0---0--0-------------------|
    *                      *        *  

    П  П   П  V   П    V   П  V     П  П   П  V   П    V   П  V
 C|-------------------------------|-------------------------------|
 G|-------------------------------|-------------------------------|
D#|---------------4----4------4---|---------------3----3------3---|
A#|-------------------------------|-------------------------------|
 F|-------------------------------|-------------------------------|
 C|-------------------------------|-------------------------------|
 G|-0--0---0--0------------0------|-0--0---0--0------------0------|
    *                      *        *                      *

    П  П   П  V   П    V   П  V   П    П  V   П   П  П   П  V   П   П  П
 C|----------------------------------|-------------------------------------|
 G|---------------------------4------|-------------------------------------|
D#|---------------4----4---4------4--|-------------------------------------|
A#|----------------------------------|-------------------------------------|
 F|----------------------------------|-------------------------------------|
 C|----------------------------------|-------------------------------------|
 G|-0--0---0--0----------------------|-0--0---0---0--0---0--0---0---0--0---|
    *                                             *                 *

    П  V   П   П  П   П  П   П  П  П  П
 C|---------------------------------------|
 G|---------------------------------------|
D#|---------------------------------------|
A#|---------------------------------------|
 F|---------------------------------------|
 C|---------------------------------------|
 G|-0--0---0---0--0---0--0---0--0--0--0---|
               *      *  *   *  *  *  *


            
            
Suggest correction
Creating personal tab
Creating personal tab
You can edit any tab online and save it as your Personal.

You can edit, replace or remove any tab part or add personal notes – all changes will be seen only by you.

Personal tabs can be accessed anytime from any device, even offline.
Learn more »
comments
print report bad tab
guest
You may want to rate the tab now too:
select rating
Wanna post a correction for this tab? Suggest correction