Oops, an error
Loading. Please wait.

Corporate Cloning Bass Tab

version 1
version 1

Whole song

Interactive

261 views 1 this week
no commentswrite comment
1 2 3 4 5
accurate
x 3
add to favorites
launch autoscroll
font size
0
reset
guitar tuner
Autoscroll
slow
fast
+/-
esc
set tempo
stop
Help us to improve Ultimate-Guitar.com Take our survey!
×
Fear Factory - Corparate Cloning

Tuning - Standard 5 string


Intro
G |-----------------|-----------------|-----------------|----------------||
D |-----------------|-----------------|-----------------|----------------||
A |-----------------|-----------------|-----------------|----------------||X2
E |-----------------|-----------------|-----------------|----------------||
B |-0-0-0-0-0-0-0-0-|-0-0-0-0---------|-0-0-0-0-0-0-0-0-|-0-0-0-0--1-1-1-||

G |-----------------|-----------------|----------------|------------------||
D |-----------------|-----------------|----------------|------------------||
A |-----------------|-----------------|----------------|------------------|| 
E |-----------------|-----------------|----------------|------------------||
B |-1-0-0-0-0-0-0-0-|-1-0-0-0-0-0-0-0-|1-0-0-0-0-0-0-0-|-1-0-0-0-0-0-1-1-1||

G |-------------------||
D |-------------------||
A |---------X8--------|| 
E |-------------------||
B |-1-0-0-0----1-1-1--||

Verse
G |----------------||
D |----------------||
A |----------------|| X15
E |----------------||
B |-2-2-2-2-2-2----||

Pre Chorus
G |----------------|----------------||
D |----------------|----------------||
A |----------------|----------------||
E |----------------|----------------||
B |-2-2-2-2-2-3----|-5-5-5-5-5-6----||

Chorus
G |----------------|----------------||
D |----------------|----------------||
A |----------------|----------------||
E |------5------5--|-1-1-1--3-3-3---||
B |-3333---3333----|----------------||

Breakdown
G |----------------|----------------||
D |----------------|----------------||
A |----------------|----------------||
E |----------------|----------------||
B |-8-7-5----------|-888888-7777-5--||
Suggest correction
Give kudos to tab author, rate the tab!
1 2 3 4 5
comments
print report bad tab
guest
You may want to rate the tab now too:
select rating
Please do not post tabs as comments. Select "correction" instead!