Oops, an error
Loading. Please wait.

Cyberwaste Tab

version 3
version 3

Whole song

Interactive

418 views 1 this week
no commentswrite comment
1 2 3 4 5
please rate
add to favorites
launch autoscroll
font size
0
reset
how to read this tab
guitar tuner
Autoscroll
slow
fast
+/-
esc
set tempo
stop
Help us to improve Ultimate-Guitar.com Take our survey!
×
Author
#----------------------------------PLEASE NOTE---------------------------------#
#This file is the author's own work and represents their interpretation of the #
#song. You may only use this file for private study, scholarship, or research. #
#------------------------------------------------------------------------------#

CYBERWASTE
As recorded by Fear Factory
(From the 2004 Album ARCHETYPE)

Transcribed by rx aka. iskim86
        

Words and Music by Fear Factory
Arranged by Fear Factory

Gtr I (B E A D G B E) - 'Guitar'
Gtr II (B E A D G B E) - 'Guitar'
Gtr III (B E A D G B E) - 'Heavy Effect'
Gtr IV (B E A D G B E) - 'Heavy Effect'

   Intro
    Q=120
    EbD5                EbD5                  Eb5                 EbD5BbF5
   4/4
    Gtrs I, II, III, IV
        PM------------|     PM------------|       PM------------|
    E E T T T T T T T T E E T T T T T T T T   E E T T T T T T T T E E E E
||------------------------------------------|-------------------------------||
||------------------------------------------|-------------------------------||
||o-----------------------------------------|------------------------------o||
||------------------------------------------|-------------------------8-----||
||o-6-5-----------------6-5-----------------|-6-5-----------------6-5-8-8--o||
||--6-5-----------------6-5-----------------|-6-5-----------------6-5-6-8---||
||--4-3-6-6-6-6-6-6-6-6-4-3-6-6-6-6-6-6-6-6-|-4-3-6-6-6-6-6-6-6-6-4-3---6---||


   Pre-Verse
    EbD5F5C5EbD5BbF5    EbD5F5C5D5
    E E E E E E E E  3x E E E E S S S S S S T T T T
||-------------------||-----------------------------|
||-------------------||-----------------------------|
||o-----------------o||-----------------------------|
||------3-------8----||-----3-----------------------|
||o-6-5-3-3-6-5-8-8-o||-6-5-3-3-5-5-5-5-5-5-5-5-5-5-|
||--6-5-1-3-6-5-6-8--||-6-5-1-3-5-5-5-5-5-5-5-5-5-5-|
||--4-3---1-4-3---6--||-4-3---1-3-3-3-3-3-3-3-3-3-3-|


   Verse
    EbD5F5C5EbD5BbF5    EbD5F5C5D5
    E E E E E E E E  3x E E E E S S S S S S T T T T
||-------------------||-----------------------------|
||-------------------||-----------------------------|
||o-----------------o||-----------------------------|
||------3-------8----||-----3-----------------------|
||o-6-5-3-3-6-5-8-8-o||-6-5-3-3-5-5-5-5-5-5-5-5-5-5-|
||--6-5-1-3-6-5-6-8--||-6-5-1-3-5-5-5-5-5-5-5-5-5-5-|
||--4-3---1-4-3---6--||-4-3---1-3-3-3-3-3-3-3-3-3-3-|


    EbD5F5C5EbD5BbF5    EbD5F5C5D5
    E E E E E E E E  3x E E E E S S S S S S T T T T
||-------------------||-----------------------------|
||-------------------||-----------------------------|
||o-----------------o||-----------------------------|
||------3-------8----||-----3-----------------------|
||o-6-5-3-3-6-5-8-8-o||-6-5-3-3-5-5-5-5-5-5-5-5-5-5-|
||--6-5-1-3-6-5-6-8--||-6-5-1-3-5-5-5-5-5-5-5-5-5-5-|
||--4-3---1-4-3---6--||-4-3---1-3-3-3-3-3-3-3-3-3-3-|


   Pre-Chorus
    EbD5                EbD5                  EbD5                EbD5BbF5
        PM------------|     PM------------|       PM------------|
    E E T T T T T T T T E E T T T T T T T T   E E T T T T T T T T E E E E
||------------------------------------------|------------------------------||
||------------------------------------------|------------------------------||
||o-----------------------------------------|-----------------------------o||
||------------------------------------------|-------------------------8----||
||o-6-5-----------------6-5-----------------|-6-5-----------------6-5-8-8-o||
||--6-5-----------------6-5-----------------|-6-5-----------------6-5-6-8--||
||--4-3-6-6-6-6-6-6-6-6-4-3-6-6-6-6-6-6-6-6-|-4-3-6-6-6-6-6-6-6-6-4-3---6--||


 Chorus
  D5              F#5     C5              E5
  S S S S S S S S Q  Q    S S S S S S S S Q  T T T T T T T T
|-----------------------|------------------------------------|
|-----------------------|------------------------------------|
|-----------------------|------------------------------------|
|-----------------------|------------------------------------|
|-5-5-5-5-5-5-5-5-9--9--|-3-3-3-3-3-3-3-3-7--7-7-7-7-7-7-7-7-|
|-5-5-5-5-5-5-5-5-9--9--|-3-3-3-3-3-3-3-3-7--7-7-7-7-7-7-7-7-|
|-3-3-3-3-3-3-3-3-7--7--|-1-1-1-1-1-1-1-1-5--5-5-5-5-5-5-5-5-|


  D5              F#5     G5                      Eb5
  S S S S S S S S Q  Q     S  S  S  S  S  S  S  S T T T T T T T T S S S S
|-----------------------|-------------------------------------------------|
|-----------------------|-------------------------------------------------|
|-----------------------|-------------------------------------------------|
|-----------------------|-------------------------------------------------|
|-5-5-5-5-5-5-5-5-9--9--|-10-10-10-10-10-10-10-10-6-6-6-6-6-6-6-6-6-6-6-6-|
|-5-5-5-5-5-5-5-5-9--9--|-10-10-10-10-10-10-10-10-6-6-6-6-6-6-6-6-6-6-6-6-|
|-3-3-3-3-3-3-3-3-7--7--|--8--8--8--8--8--8--8--8-4-4-4-4-4-4-4-4-4-4-4-4-|


  D5              F#5     C5              E5
  S S S S S S S S Q  Q    S S S S S S S S Q  T T T T T T T T
|-----------------------|------------------------------------|
|-----------------------|------------------------------------|
|-----------------------|------------------------------------|
|-----------------------|------------------------------------|
|-5-5-5-5-5-5-5-5-9--9--|-3-3-3-3-3-3-3-3-7--7-7-7-7-7-7-7-7-|
|-5-5-5-5-5-5-5-5-9--9--|-3-3-3-3-3-3-3-3-7--7-7-7-7-7-7-7-7-|
|-3-3-3-3-3-3-3-3-7--7--|-1-1-1-1-1-1-1-1-5--5-5-5-5-5-5-5-5-|


  D5              F#5     F5              Eb5
  S S S S S S S S Q  Q    S S S S S S S S T T T T T T T T S S S S
|-----------------------|-----------------------------------------|
|-----------------------|-----------------------------------------|
|-----------------------|-----------------------------------------|
|-----------------------|-----------------------------------------|
|-5-5-5-5-5-5-5-5-9--9--|-8-8-8-8-8-8-8-8-6-6-6-6-6-6-6-6-6-6-6-6-|
|-5-5-5-5-5-5-5-5-9--9--|-8-8-8-8-8-8-8-8-6-6-6-6-6-6-6-6-6-6-6-6-|
|-3-3-3-3-3-3-3-3-7--7--|-6-6-6-6-6-6-6-6-4-4-4-4-4-4-4-4-4-4-4-4-|


   Pre-Verse
    EbD5                EbD5                  EbD5                EbD5BbF5
        PM------------|     PM------------|       PM------------|
    E E T T T T T T T T E E T T T T T T T T   E E T T T T T T T T E E E E
||------------------------------------------|------------------------------||
||------------------------------------------|------------------------------||
||o-----------------------------------------|-----------------------------o||
||------------------------------------------|-------------------------8----||
||o-6-5-----------------6-5-----------------|-6-5-----------------6-5-8-8-o||
||--6-5-----------------6-5-----------------|-6-5-----------------6-5-6-8--||
||--4-3-6-6-6-6-6-6-6-6-4-3-6-6-6-6-6-6-6-6-|-4-3-6-6-6-6-6-6-6-6-4-3---6--||


    EbD5F5C5EbD5BbF5    EbD5F5C5D5
    E E E E E E E E  3x E E E E S S S S S S T T T T
||-------------------||-----------------------------|
||-------------------||-----------------------------|
||o-----------------o||-----------------------------|
||------3-------8----||-----3-----------------------|
||o-6-5-3-3-6-5-8-8-o||-6-5-3-3-5-5-5-5-5-5-5-5-5-5-|
||--6-5-1-3-6-5-6-8--||-6-5-1-3-5-5-5-5-5-5-5-5-5-5-|
||--4-3---1-4-3---6--||-4-3---1-3-3-3-3-3-3-3-3-3-3-|


   Verse
    EbD5F5C5EbD5BbF5    EbD5F5C5D5
    E E E E E E E E  3x E E E E S S S S S S T T T T
||-------------------||-----------------------------|
||-------------------||-----------------------------|
||o-----------------o||-----------------------------|
||------3-------8----||-----3-----------------------|
||o-6-5-3-3-6-5-8-8-o||-6-5-3-3-5-5-5-5-5-5-5-5-5-5-|
||--6-5-1-3-6-5-6-8--||-6-5-1-3-5-5-5-5-5-5-5-5-5-5-|
||--4-3---1-4-3---6--||-4-3---1-3-3-3-3-3-3-3-3-3-3-|


    EbD5F5C5EbD5BbF5    EbD5F5C5D5
    E E E E E E E E  3x E E E E S S S S S S T T T T
||-------------------||-----------------------------|
||-------------------||-----------------------------|
||o-----------------o||-----------------------------|
||------3-------8----||-----3-----------------------|
||o-6-5-3-3-6-5-8-8-o||-6-5-3-3-5-5-5-5-5-5-5-5-5-5-|
||--6-5-1-3-6-5-6-8--||-6-5-1-3-5-5-5-5-5-5-5-5-5-5-|
||--4-3---1-4-3---6--||-4-3---1-3-3-3-3-3-3-3-3-3-3-|


 Chorus
  D5              F#5     C5              E5
  S S S S S S S S Q  Q    S S S S S S S S Q  T T T T T T T T
|-----------------------|------------------------------------|
|-----------------------|------------------------------------|
|-----------------------|------------------------------------|
|-----------------------|------------------------------------|
|-5-5-5-5-5-5-5-5-9--9--|-3-3-3-3-3-3-3-3-7--7-7-7-7-7-7-7-7-|
|-5-5-5-5-5-5-5-5-9--9--|-3-3-3-3-3-3-3-3-7--7-7-7-7-7-7-7-7-|
|-3-3-3-3-3-3-3-3-7--7--|-1-1-1-1-1-1-1-1-5--5-5-5-5-5-5-5-5-|


  D5              F#5     G5                      Eb5
  S S S S S S S S Q  Q     S  S  S  S  S  S  S  S T T T T T T T T S S S S
|-----------------------|-------------------------------------------------|
|-----------------------|-------------------------------------------------|
|-----------------------|-------------------------------------------------|
|-----------------------|-------------------------------------------------|
|-5-5-5-5-5-5-5-5-9--9--|-10-10-10-10-10-10-10-10-6-6-6-6-6-6-6-6-6-6-6-6-|
|-5-5-5-5-5-5-5-5-9--9--|-10-10-10-10-10-10-10-10-6-6-6-6-6-6-6-6-6-6-6-6-|
|-3-3-3-3-3-3-3-3-7--7--|--8--8--8--8--8--8--8--8-4-4-4-4-4-4-4-4-4-4-4-4-|


  D5              F#5     C5              E5
  S S S S S S S S Q  Q    S S S S S S S S Q  T T T T T T T T
|-----------------------|------------------------------------|
|-----------------------|------------------------------------|
|-----------------------|------------------------------------|
|-----------------------|------------------------------------|
|-5-5-5-5-5-5-5-5-9--9--|-3-3-3-3-3-3-3-3-7--7-7-7-7-7-7-7-7-|
|-5-5-5-5-5-5-5-5-9--9--|-3-3-3-3-3-3-3-3-7--7-7-7-7-7-7-7-7-|
|-3-3-3-3-3-3-3-3-7--7--|-1-1-1-1-1-1-1-1-5--5-5-5-5-5-5-5-5-|


  D5              F#5     F5              Eb5
  S S S S S S S S Q  Q    S S S S S S S S T T T T T T T T S S S S
|-----------------------|-----------------------------------------|
|-----------------------|-----------------------------------------|
|-----------------------|-----------------------------------------|
|-----------------------|-----------------------------------------|
|-5-5-5-5-5-5-5-5-9--9--|-8-8-8-8-8-8-8-8-6-6-6-6-6-6-6-6-6-6-6-6-|
|-5-5-5-5-5-5-5-5-9--9--|-8-8-8-8-8-8-8-8-6-6-6-6-6-6-6-6-6-6-6-6-|
|-3-3-3-3-3-3-3-3-7--7--|-6-6-6-6-6-6-6-6-4-4-4-4-4-4-4-4-4-4-4-4-|


   Breakdown
    EbD5E5  EbF5  E5F#5 G5
    S S E S S E S S E E  E  8x
||--------------------------||-|
||--------------------------||-|
||o------------------------o||-|
||--------------------------||-|
||o-6-5-7-7-6-8-8-7-9-9-10-o||-|
||--6-5-7-7-6-8-8-7-9-9-10--||-|
||--4-3-5-5-4-6-6-5-7-7--8--||-|


                                                    F#G5
    T T T T T T T T T T T T T T T T T T T T T T T T E  E   4x
||---------------------------------------------------------||
||---------------------------------------------------------||
||o-------------------------------------------------------o||
||---------------------------------------------------------||
||o-------------------------------------------------9-10--o||
||--------------------------------------------------9-10---||
||--4-4-3-3-5-5-5-5-5-5-4-4-6-6-6-6-6-6-5-5-7-7-7-7-7--8---||


 Chorus
  D5              F#5     C5              E5
  S S S S S S S S Q  Q    S S S S S S S S Q  T T T T T T T T
|-----------------------|------------------------------------|
|-----------------------|------------------------------------|
|-----------------------|------------------------------------|
|-----------------------|------------------------------------|
|-5-5-5-5-5-5-5-5-9--9--|-3-3-3-3-3-3-3-3-7--7-7-7-7-7-7-7-7-|
|-5-5-5-5-5-5-5-5-9--9--|-3-3-3-3-3-3-3-3-7--7-7-7-7-7-7-7-7-|
|-3-3-3-3-3-3-3-3-7--7--|-1-1-1-1-1-1-1-1-5--5-5-5-5-5-5-5-5-|


  D5              F#5     G5                      Eb5
  S S S S S S S S Q  Q     S  S  S  S  S  S  S  S T T T T T T T T S S S S
|-----------------------|-------------------------------------------------|
|-----------------------|-------------------------------------------------|
|-----------------------|-------------------------------------------------|
|-----------------------|-------------------------------------------------|
|-5-5-5-5-5-5-5-5-9--9--|-10-10-10-10-10-10-10-10-6-6-6-6-6-6-6-6-6-6-6-6-|
|-5-5-5-5-5-5-5-5-9--9--|-10-10-10-10-10-10-10-10-6-6-6-6-6-6-6-6-6-6-6-6-|
|-3-3-3-3-3-3-3-3-7--7--|--8--8--8--8--8--8--8--8-4-4-4-4-4-4-4-4-4-4-4-4-|


  D5              F#5     C5              E5
  S S S S S S S S Q  Q    S S S S S S S S S S S S T T T T T T T T
|-----------------------|-----------------------------------------|
|-----------------------|-----------------------------------------|
|-----------------------|-----------------------------------------|
|-----------------------|-----------------------------------------|
|-5-5-5-5-5-5-5-5-9--9--|-3-3-3-3-3-3-3-3-7-7-7-7-7-7-7-7-7-7-7-7-|
|-5-5-5-5-5-5-5-5-9--9--|-3-3-3-3-3-3-3-3-7-7-7-7-7-7-7-7-7-7-7-7-|
|-3-3-3-3-3-3-3-3-7--7--|-1-1-1-1-1-1-1-1-5-5-5-5-5-5-5-5-5-5-5-5-|


  D5              F#5     F5              Eb5
  S S S S S S S S Q  Q    S S S S S S S S S S S S T T T T T T T T
|-----------------------|-----------------------------------------|
|-----------------------|-----------------------------------------|
|-----------------------|-----------------------------------------|
|-----------------------|-----------------------------------------|
|-5-5-5-5-5-5-5-5-9--9--|-8-8-8-8-8-8-8-8-6-6-6-6-6-6-6-6-6-6-6-6-|
|-5-5-5-5-5-5-5-5-9--9--|-8-8-8-8-8-8-8-8-6-6-6-6-6-6-6-6-6-6-6-6-|
|-3-3-3-3-3-3-3-3-7--7--|-6-6-6-6-6-6-6-6-4-4-4-4-4-4-4-4-4-4-4-4-|


 Breakdown
  Eb5
                                               2/4
                          PM  PM------------|
  T T T T T T T T T T T T S S S S S S S S S S   T T T T T T T T T T T T S S
|---------------------------------------------|-----------------------------|
|---------------------------------------------|-----------------------------|
|---------------------------------------------|-----------------------------|
|---------------------------------------------|-----------------------------|
|-6-6-6-6-6-6-6-6-6-6-6-6-6---6-6-6-6-6-6-6-6-|-6-6-6-6-6-6-6-6-6-6-6-6-6---|
|-6-6-6-6-6-6-6-6-6-6-6-6-6---6-6-6-6-6-6-6-6-|-6-6-6-6-6-6-6-6-6-6-6-6-6---|
|-4-4-4-4-4-4-4-4-4-4-4-4-4---4-4-4-4-4-4-4-4-|-4-4-4-4-4-4-4-4-4-4-4-4-4---|


   Bridge
    G#F#F5F#G#F#G#A5
   4/4
    E E E E E E E E   E E E E E E E E  4x
||------------------|------------------||
||------------------|------------------||
||o-----------------|-----------------o||
||--6-4-3-4-6-4-6-7-|------------------||
||o-6-4-3-4-6-4-6-7-|-----------------o||
||--4-2-1-2-4-2-4-5-|-4-2-1-2-4-2-4-5--||
||------------------|------------------||


      Q=60
      G#F#F5F#G#F#G#A5G#F#F5F#G#F#G#A5
      S S S S S S S S S S S S S S S S
|-||------------------------------------||
|-||------------------------------------||
|-||o----------------------------------o||
|-||--6-4-3-4-6-4-6-7-6-4-3-4-6-4-6-7---||
|-||o-6-4-3-4-6-4-6-7-6-4-3-4-6-4-6-7--o||
|-||--4-2-1-2-4-2-4-5-4-2-1-2-4-2-4-5---||
|-||------------------------------------||


    EbC#C5C#EbC#EbE5EbC#C5C#EbC#EbE5    G#F#F5F#G#F#G#A5G#F#F5F#G#F#G#A5
    S S S S S S S S S S S S S S S S     S S S S S S S S S S S S S S S S
||-----------------------------------||---------------------------------|
||-----------------------------------||---------------------------------|
||o---------------------------------o||---------------------------------|
||-----------------------------------||-6-4-3-4-6-4-6-7-6-4-3-4-6-4-6-7-|
||o---------------------------------o||-6-4-3-4-6-4-6-7-6-4-3-4-6-4-6-7-|
||--6-4-3-4-6-4-6-7-6-4-3-4-6-4-6-7--||-4-2-1-2-4-2-4-5-4-2-1-2-4-2-4-5-|
||--4-2-1-2-4-2-4-5-4-2-1-2-4-2-4-5--||---------------------------------|


  Q=120
  G#5     F#5     F5      F#5     G#5     F#5     G#5     A5
  T T T T T T T T T T T T T T T T T T T T T T T T T T T T T T T T
|-----------------------------------------------------------------|
|-----------------------------------------------------------------|
|-----------------------------------------------------------------|
|-----------------------------------------------------------------|
|-6-6-6-6-4-4-4-4-3-3-3-3-4-4-4-4-6-6-6-6-4-4-4-4-6-6-6-6-7-7-7-7-|
|-4-4-4-4-2-2-2-2-1-1-1-1-2-2-2-2-4-4-4-4-2-2-2-2-4-4-4-4-5-5-5-5-|
|-----------------------------------------------------------------|


  G#F#F5F#G#F#G#A5
  PM------------|
  E E E E E E E E
|-----------------|
|-----------------|
|-----------------|
|-6-4-3-4-6-4-6-7-|
|-6-4-3-4-6-4-6-7-|
|-4-2-1-2-4-2-4-5-|
|-----------------|


 Outro
  EbD5                EbD5                  EbD5                EbD5BbF5
      PM------------|     PM------------|       PM------------|
  E E T T T T T T T T E E T T T T T T T T   E E T T T T T T T T E E E E
|-----------------------------------------|------------------------------*|
|-----------------------------------------|------------------------------*|
|-----------------------------------------|------------------------------*|
|-----------------------------------------|-------------------------8----*|
|-6-5-----------------6-5-----------------|-6-5-----------------6-5-8-8--*|
|-6-5-----------------6-5-----------------|-6-5-----------------6-5-6-8--*|
|-4-3-6-6-6-6-6-6-6-6-4-3-6-6-6-6-6-6-6-6-|-4-3-6-6-6-6-6-6-6-6-4-3---6--*|



Duration Legend
---------------
W - whole; H - half; Q - quarter; E - 8th; S - 16th; T - 32nd; X - 64th; a - acciaccatura
+ - note tied to previous; . - note dotted; .. - note double dotted
Uncapitalized letters represent notes that are staccato (1/2 duration)
Irregular groupings are notated above the duration line
Duration letters will always appear directly above the note/fret number it represents the
duration for.  Duration letters with no fret number below them represent rests.  Multi-
bar rests are notated in the form Wxn, where n is the number of bars to rest for.  Low
melody durations appear below the staff

Tablature Legend
----------------
 h   - hammer-on
 p   - pull-off
 b   - bend
 pb  - pre-bend
 r   - bend release (if no number after the r, then release immediately)
 /\  - slide into or out of (from/to "nowhere")
 s   - legato slide
 S   - shift slide
 - natural harmonic
[n]  - artificial harmonic
n(n) - tapped harmonic
 ~   - vibrato
 tr  - trill
 T   - tap
 TP  - trem. picking
 PM  - palm muting
\n/  - tremolo bar dip; n = amount to dip
 \n  - tremolo bar down
 n/  - tremolo bar up
/n\  - tremolo bar inverted dip
 =   - hold bend; also acts as connecting device for hammers/pulls
 <> - volume swell (louder/softer)
 x   - on rhythm slash represents muted slash
 o   - on rhythm slash represents single note slash

Misc Legend
-----------
 |  - bar
||  - double bar
||o - repeat start
o|| - repeat end
*|  - double bar (ending)
 :  - bar (freetime)
 $  - Segno
 &  - Coda
Tempo markers -  = BPM(8/16=s8/s16), where s8 = swing 8ths, s16 = swing 16ths

Suggest correction
What's this?
You can suggest a correction to this tab. Community and Mods will review your correction and vote to approve or reject it.
comments
We did not receive enough feedback on this tab! Please rate:
print report bad tab
1 2 3 4 5
guest
You may want to rate the tab now too:
select rating
Please do not post tabs as comments. Select "correction" instead!