Oops, an error
Loading. Please wait.

Demanufacture Bass Tab

version 1
version 1

Whole song

Interactive

954 views 1 this week
no commentswrite comment
1 2 3 4 5
worth learning
x 1
add to favorites
launch autoscroll
font size
0
reset
guitar tuner
Tab Pro tools
  • play this tab
  • loop segment
  • change instrument
  • show fretboard
  • metronome
Autoscroll
slow
fast
+/-
esc
set tempo
stop
Contributor
Difficulty
novice
Band: Fear Factory
Album: Demanufacture
Song: Demanufacture
Tuning 5-string: B E A D G
Tabbed By: ClosedRoad

Intro first only drums then
G --------------------------------------------------------|
D --------------------------------------------------------|
A --------------------------------------------------------|
E --------------------------------------------------------|
B -33333333-2-2-3-2--2-3-2--2-3-2--2-3-5--222-3-2--2-3-2--|

G --------------------------------------------------------|
D --------------------------------------------------------|
A --------------------------------------------------------|
E --------------------------------------------------------|
B -2-2-3-2--2-3-2--2-3-2--2-3-5--222-3-2--2-3-2--333-333--|

G ---------------------------------------------------------------|
D ---------------------------------------------------------------|
A ---------------------------------------------------------------|
E ---------------------------------------------------------------|
B -2-2-3-2--2-3-2--2-3-2--2-3-5--222-3-2--2-3-2--2-3-2-33333333--|

G -------------------------------------------------------|
D -------------------------------------------------------|
A -------------------------------------------------------|
E -------------------------------------------------------|
B -2-2-3-2--2-3-2--2-3-2--2-3-5-222-3-2--2-3-2--2-3-2-3--|

Main Riff
G ---------------------------------------------------------------|
D ---------------------------------------------------------------|
A ---------------------------------------------------------------|
E ---------------------------------------------------------------| 2x
B -222-3-2--2-3-2--2-3-2--2-3-5--222-3-2--2-3-2--2-3-2-33333333--|

Verse
G --------------------------------------------------------------|
D --------------------------------------------------------------|
A --------------------------------------------------------------|
E --------------------------------------------------------------| 2x
B -2-2-3-2--2-3-2--2-3-2--2-3-5--222-3-2--2-3-2--2-3-2-33333333-|

Main Riff 2x

Pre Verse
G --------------------------------------------------------------|
D --------------------------------------------------------------|
A --------------------------------------------------------------|
E --------------------------------------------------------------|
B -2-2-3-2--2-3-2--2-3-2--2-3-2--2-3-2--2-3-2--2-3-2-33333333---|

Verse 2x
Main Riff 2x

Pre Bridge I
G -----------------------------------------------------------|
D -----------------------------------------------------------|
A -----------------------------------------------------------|
E -----------------------------------------------------------| 2x
B -555-555-3-5-3--666-555-333--222-222--0-3-5-222-222-0-3-0--|

Pre Bridge II
G --------------------------------------------------------------|
D --------------------------------------------------------------|
A --------------------------------------------------------------|
E --------------------------------------------------------------| 2x
B -222-222--0-3-5-222-222--0-3-0-222-222--0-3-5-222-222--0-3-0--|

Pre Bridge III
G -------------------------------------------------------|
D -------------------------------------------------------|
A -------------------------------------------------------|
E -------------------------------------------------------| 2x
B -3-3--2-3-3--0-6-6--0-4-4--0-3-3--2-3-3--0-6-6--0-8-8--|

Bridge
G ---------------------------------------------|
D ---------------------------------------------|
A ---------------------------------------------|
E ------5-----------5----------5----------5----|
B -4-------6----4------6----4-----6----4-----6-|

Bass part
G --------------------------------------------------------|
D --------------------------------------------------------|
A --------------------------------------------------------|
E --------------------------------------------------------|
B -2232-2232-2232-2232-2232-2232-2232-2232-22222222-22-22-|

Pre Bridge III 2x
Bridge 3x

After Bridge
G --------------------------------------------------------------|
D --------------------------------------------------------------|
A --------------------------------------------------------------|
E --------------------------------------------------------------|
B -2-2-3-2--2~~~--2-2-3-2--2~~~--2-2-3-2--2~~~--2-2-3-2--2~~~---|

Main Riff 2x

Pre Birdge
G --------------------------------------------------------------|
D --------------------------------------------------------------|
A --------------------------------------------------------------|
E --------------------------------------------------------------| 2x
B -222-222--0-3-5-222-222--0-3-0-222-222--0-3-5-222-222--0-3-0--|

then only vocals

Pre Outro I
G ------------------------------------------|
D ------------------------------------------|
A ------------------------------------------|
E ------------------------------------------| 2x
B -2--2--3-5-2--2--3-0-2--2--3-5-2--2--3-0--|

Pre Outro II
G --------------------------------|
D --------------------------------|
A --------------------------------|
E --------------------------------| 2x
B -22222222-0-3-5-22222222-0-3-0--|
PM          .....          .....

Pre Outro III
G -----------------------------------------|
D -----------------------------------------|
A -----------------------------------------|
E -----------------------------------------|
B -2~~~--3~~~--33333333-2~~~--6~~--5~--3~--|

Outro
G --------------------------------------------------------|
D --------------------------------------------------------|
A --------------------------------------------------------|
E --------------------------------------------------------|
B -2232223222322232223222322232223222322232223222-22-3-2--|

Damn difficult tab be here it is.
Have Fun
Greetings ClosedRoad
comments
We did not receive enough feedback on this tab! Please rate:
print report bad tab
1 2 3 4 5
I want to post or [tab]
guest
You may want to rate the tab now too:
select rating
Please do not post tabs as comments. Select "correction" instead!